Oops, an error
Loading. Please wait.

All Night Dance Parties In The Underground Palace tab

version 2
version 2

Whole song

Interactive

by Alesana
1,667 views 1 this week
no commentswrite comment
1 2 3 4 5
2 more votes to show rating
add to favorites
×
Save as Personal and add changes to this tab that will be seen only by you. Learn more ›
×
You can save this tab as Personal to edit and correct it or add notes. All changes will be seen only by you. Learn more »
launch autoscroll
font size
0
reset
how to read this tab
guitar tuner
edit
Autoscroll
slow
fast
+/-
esc
set tempo
stop
artist:alesana
album:where myth fades to legend
song:all night dance parties in the underground palace

tuning:standard(so you wouldn't waste some seconds tuning to drop d :D)
legend:

        ~ - let it ring
        . - palm mute
        x - scratch
        / - slide


intro:  

   guitar 2:

e|------------------------12-------9-10--|
B|--10--------10----------------10-------|
G|-----9----9----9----9-------9----------| 
D|-------11--------11--------------------| (4x)
A|---------------------------------------|
E|---------------------------------------|

   guitar 1 / guitar 3:

e|-------------------|
B|-------------------|
G|--4~------2~-------|
D|--4~--5~--2~--4~---|
A|--2~--5~--0~--4~---|
E|------3~------2~---|


verse: (2x)


  guitar 3:

e|-----------------------------------------------|
B|-----------------------------------------------|
G|--44444-4x4------------------------------------|
D|--44444-4x4--55555-5x5--77777-7x7--8-88-88-88--| 
A|--22222-2x2--55555-5x5--77777-7x7--8-88-88-88--|
E|-------------33333-3x3--55555-5x5--6-66-66-66--|
    ..... . .  ..... . .  ..... . .  
   guitar 1

e|----------------------------------------------|
B|----------------------------------------------|
G|--44444444------------------------------------|
D|--44444444--55555555--77777777--8-88-88-88----|
A|--22222222--55555555--77777777--8-88-88-88----|
E|------------33333333--55555555--6-66-66-66----|
    ........  ........  ........  

   guitar 2

e|---------------------------12~--9-10~--------------------------------|
B|-------10~--------------10-------------------10~---------------------|
G|-----9-------9--------9--------------------9------9------------------|
D|--11-----------11~----------------------11----------11~--8-88-88-88--|
A|---------------------------------------------------------8-88-88-88--|
E|---------------------------------------------------------6-66-66-66--|


pre-chorus:

   guitar 1 / guitar 3: [once]

e|-----------------------------------------------|
B|-----------------------------------------------|
G|--4444444----------------------------------3~--|
D|--4444444--44444444--55555555--44444444----3~--|
A|--2222222--44444444--55555555--44444444----1~--|
E|-----------22222222--33333333--22222222--------|
    .......  ........  ........  ........
   guitar 2: [twice]

e|-----------------|     |--------------|
B|-----6---6---6---|     |----3---3---3-|
G|---5---5---------|(4x) |--5---5-------| (4x)
D|-----------------|     |--------------|
A|-----------------|     |--------------|
E|-----------------|     |--------------|
     . . . .                . . . .

chorus: (2x)

  guitar 1 , 2 & 3:

e|--------------------------------------------------------------------------|
B|--------------------------------------------------------------------------|
G|----------------------44444444--------------------------------------------|
D|--55555555--77777777--44444444--444444-4-5--55555555--77777777--44444444--|
A|--55555555--77777777--22222222--444444-4-5--55555555--77777777--22222222--|
E|--33333333--55555555------------222222-2-3--33333333--55555555--22222222--|



repeat verse
repeat pre-chorus
repeat chorus


bridge: 

   guitar 1 , 2 & 3 :

e|---------------------------------------------------|
B|---------------------------------------------------|
G|--44444444-------------------------------33333333--|
D|--44444444--44444444--55555555--4444444--33333333--| (2x)
A|--22222222--44444444--55555555--4444444--11111111--|
E|------------22222222--33333333--2222222------------|

   guitar 2 mini solo:

e|--5-------------5----------------|
B|---------------------------------|
G|-----7-6-7-6~------7-6-7-6-/-9---|
D|---------------------------------|
A|---------------------------------|
E|---------------------------------|

   then (all guitars)

e|--xxxxxxxx--|
B|--xxxxxxxx--|
G|--xxxxxxxx--|
D|--xxxxxxxx--|
A|--xxxxxxxx--|
E|--xxxxxxxx--|


repeat chorus

last chord:

e|----------------|
B|----------------|
G|----------------|
D|--44444--44444--|
A|--44444--44444--|
E|--22222--22222--|

_____________________________________________________________________________

uhmmm...this is a nice song.one of the few alesana songs that i like! :) and
the only song i love in "where myth fades to legend" album! haha,.. i made
this tab so clear,.hope you trust and enjoy this tab cause i worked hard for 
this!haha,and it's almost complete!
_____________________________________________________________________________

...tell me a story into that goodnight...[song of the century]
LONG LIVE EARTH!XD

            
            
Suggest correction
Creating personal tab
Creating personal tab
You can edit any tab online and save it as your Personal.

You can edit, replace or remove any tab part or add personal notes – all changes will be seen only by you.

Personal tabs can be accessed anytime from any device, even offline.
Learn more »
Give kudos to tab author, rate the tab!
1 2 3 4 5
comments
print report bad tab
guest
You may want to rate the tab now too:
select rating
Wanna post a correction for this tab? Suggest correction