Oops, an error
Loading. Please wait.

Ambrosia bass

version 3
version 3

Whole song

Interactive

by Alesana
2,266 views 1 this week
no commentswrite comment
1 2 3 4 5
x 3
add to favorites
×
Save as Personal and add changes to this tab that will be seen only by you. Learn more ›
×
You can save this tab as Personal to edit and correct it or add notes. All changes will be seen only by you. Learn more »
launch autoscroll
font size
0
reset
guitar tuner
edit
Autoscroll
slow
fast
+/-
esc
set tempo
stop
Okay, this is my first tab and I made this by ear. Correct me if something is wrong.  
rate and comment .Enjoy! =D.
Tuning:  Drop D   (D A D G)
Intro.
G------|
D------|
A-5~---|
D------|

"A touch of poison.. Seals my fate..!"
|--------------------------------------7~--|
|-------------------------------5-7-8------|
|--3-1-0-----------------------------------|
|-----------0------------------------------|

"Once king of roses.."
In the verse listen to the song to take the rythm.
|---------------------------------------------------------------------------|
|---------------------------------------------------------------------------|
|----------------------------------------------5-5-35-55555-----------------|
|-5-555555555555553—333333333333333--1-1-1-111------------------------------|

"The gods themselves envy my hand.."
|---------------------------------------------------------------------------|
|---------------------------------------------------------------------------|
|----------------------------------------------5-5-35-55555-----------------|
|-5-555555555555553—333333333333333--1-1-1-111--------------3---------------|

Pre-Chorus
In the song, the right way is playing the 10 in the A string but it sounds very cool 
the slide.=D.
|-------------------------------------------|
|-------------------------------------------|
|--10---------------------------------------|
|------------------(0/12)-------------------|

Chorus
"I curse the day my dream became my decent.."
|--------------------------------------------------------------------------|
|--------------------------------------------------------------------------|
|--------------------------------------------------------------------------|
|--555555555555555555555555555555553-333333333333333333333/15151515151515\-|

|-----------------------------------------------------------|
|-----------------------------------------------------------|
|-----------------------------5-5\--1/5-5\--1/5-5\--1/5-5\--|
|--11111111111111111111111111-------------------------------|

Verse
"In my perfection..."
|---------------------------------------------------------------------------|
|---------------------------------------------------------------------------|
|----------------------------------------------5-5-35-55555-----------------|
|-5-555555555555553—333333333333333--1-1-1-111------------------------------|


"Yet eyes stil glint.."
|---------------------------------------------------------------------------|
|---------------------------------------------------------------------------|
|----------------------------------------------5-5-35-5-530-----------------|
|-5-555555555555553—333333333333333--1-1-1-111-------------5----------------|

Pre-Chorus
|-------------------------------------------|
|-------------------------------------------|
|--10---------------------------------------|
|------------------(0/12)-------------------|

Chorus
"I curse the day my dream became my decent.."
|--------------------------------------------------------------------------|
|--------------------------------------------------------------------------|
|--------------------------------------------------------------------------|
|--555555555555555555555555555555553-333333333333333333333/15151515151515\-|

|----------------------------------------------------------------|
|----------------------------------------------------------------|
|---------------------------6666\-1/5-5\--1/5-5\--1/5-5\--1/5-5\-|
|--1111111111111111111111----------------------------------------|

Outro.
"HAVE I NOT..." x4
|----------------------|
|----------------------|
|-1-1-1-1-0-0-0-0x-----|
|------------------0~--|

Bass Solo
Im sure that this is 99% good. xD.
|---------------------------------------------|
|---------------------------------------------|
|------3h5-3----353--------3h5-3---3/12-------|
|-7-0-------0--0---55-33-00-----0-0----15-----|

"Oh yeah!.. Ive got her.. Hook, line and sinker.."
|-------------------------------------------------------------------------|
|-------------------------------------------------------------------------|
|----3h5-3------------3h5-3-----------3h5-3-----------3h5-3-----3-5/12----|
|--0x-----5x--3-5-3-0x-----5x-3-5-3-0x-----5x-3-5-3-0x-----5x--5------15--|

|---------------------------------------------------------------------------|
|---------------------------------------------------------------------------|
|----3h5-3------------3h5-3---------------3h5-3-----------3h5-3-------------|
|--0x-----5x--3-5-3-0x-----5x-3-555-333-0x-----5x-3-5-3-0x-----5x-3-5-1-----|

"Now she's good as gold..."
|-------7~-----|
|-5-7-8--------|
|--------------|
|--------------|

Chorus
"I curse the day my dream became my decent.."
|--------------------------------------------------------------------------|
|--------------------------------------------------------------------------|
|--------------------------------------------------------------------------|
|--555555555555555555555555555555553-333333333333333333333/15151515151515\-|


|----------------------------------------------------------------|
|----------------------------------------------------------------|
|---------------------------6666\-1/5-5\--1/5-5\--1/5-5\--1/5-5\-|
|--1111111111111111111111----------------------------------------|

Chorus again.
|--------------------------------------------------------------------------|
|--------------------------------------------------------------------------|
|--------------------------------------------------------------------------|
|--555555555555555555555555555555553-333333333333333333333/15151515151515\-|


|----------------------------------------------------------------|
|----------------------------------------------------------------|
|---------------------------6666\-1/5-5\--1/5-5\--1/5-5\--1/5-5\-|
|--1111111111111111111111----------------------------------------|

And finish with this.
|------------------------------|
|------------------------------|
|-1-1-1-1-0-0-0-0--------------|
|-----------------xxxxxxxxx0~--|
 thats all please rate an comment
Suggest correction
Creating personal tab
Creating personal tab
You can edit any tab online and save it as your Personal.

You can edit, replace or remove any tab part or add personal notes – all changes will be seen only by you.

Personal tabs can be accessed anytime from any device, even offline.
Learn more »
Give kudos to tab author, rate the tab!
1 2 3 4 5
comments
print report bad tab
guest
Wanna post a correction for this tab? Suggest correction