Oops, an error
Loading. Please wait.

And They Call This Tragedy bass

version 1
version 1

Whole song

Interactive

by Alesana
1,856 views 1 this week
2 commentsread comments
1 2 3 4 5
x 3
add to favorites
×
Save as Personal and add changes to this tab that will be seen only by you. Learn more ›
×
You can save this tab as Personal to edit and correct it or add notes. All changes will be seen only by you. Learn more »
launch autoscroll
font size
0
reset
guitar tuner
edit
Autoscroll
slow
fast
+/-
esc
set tempo
stop
+++++++++++++++++++++++++++++++++++++++
| Alesana- And They Call This Tragedy |
+++++++++++++++++++++++++++++++++++++++

Updated: Sunday 6/30/2008

This is the new Where Myth Fades To Legend
version, enjoy!!


"Try again, make it perfect, make me worth it..."

Tuning: Drop D (DADG)


Intro
1.
G|-------------------------------------------------------------------------|
D|-------------------------------------------------------------------------|
A|-------------------00000000-00000000-------------------------------------|
D|-55555555-55555555-------------------44444444-44444444-55555555-55555555-|

Verse
"You make me sick..."
2.
G|-------------------------------------|
D|-------------------------------------|
A|-------------------00000000-00000000-|
D|-55555555-55555555-------------------|

"I'll tear out those diamond eyes!"
3.
G|---------------------------------------------------------------|
D|---------------------------------------------------------------|
A|-22x----22x----22x----22x--00x----------------------------00x--|--x2
D|--------------------------------55x----55x----55x----55x-------|

"Remembering the nights when you'd whisper to me soft..."
4.
G|---------------------------------------------------------------------|
D|---------------------------------------------------------------------|
A|-----------------0-0000000-0000000-----------------2-2222220-000000--|
D|-55555555-5555555-----------------4-4444444-4444444----------------5-|

Pre-Chorus
"Realize those words have died..."
5.
G|----------------------------|
D|----------------------------|
A|------------------0~--------|
D|-5555555-55555555-----------|

Chorus
"As the life fades from your eyes..."
6.
G|-------------------------------------------------------------------|
D|-------------------------------------------------------------------|
A|-22222222-2-2-2x----222222-2-2-2x----------------------------------|
D|----------------------------------55555555-5-5-5x----555555-5-5-5x-|

"I can say is it may not be to late..."
7.
G|----------------------------------------------------|
D|----------------------------------------------------|
A|-00000000-0-0-0x----000000-0-0-0x-------------------|
D|----------------------------------44x----44x----4-4-|

Outro
8.
G|---------------------|
D|---------------------|
A|-2~--------2~--------|
D|---------------------|

Verse
"If I can not be loved..."
9.
G|--------------------------------------|
D|--------------------------------------|
A|-----------2222222222222x--22x-2-2-2x-|--x4
D|-5~-----------------------------------|

Pre-Chorus
"You call love dies..."
10.
G|---------------------|
D|---------------------|
A|---------------------|
D|-5~--------5~--------|

Chorus
"As the life fades from your eyes..."
11.
G|-------------------------------------------------------------------|
D|------------------------------------------------------------7-5----|
A|-22222222-2-2-2x----222222-2-2-2x-------------------------------7x-|
D|----------------------------------55555555-5-5-5x----555555--------|

"I can say is it may not be to late..."
12.
G|----------------------------------------------------|
D|----------------------------------------------------|
A|-00000000-0-0-0x----000000-0-0-0x-------------------|
D|----------------------------------44x----44x----4-4-|

"Try again, make it perfect..."
13.
G|---------------------------4-4-4x----------------------------------|
D|------------------------------------------------------------7-5----|
A|-22222222-2-2-2x----222222--------------------------------------7x-|
D|----------------------------------55555555-5-5-5x----555555--------|

"Worth it, or else die for all I care..."
14.
G|----------------------------------------------------|
D|----------------------------------------------------|
A|-00000000-0-0-0x----000000-0-0-0x-------------------|
D|----------------------------------44x----44x----4-4-|

Outro
"I have put this off so long..."
15.
G|-----------------------------------------------|
D|-----------------------------------------------|
A|------------------------2----------------------|
D|--------5x-5x-5x--44-24--4-5x----5-5-5x--------|

"But its never to late..."
16.
G|------------------------------------|
D|------------------------------------|
A|------------------------2-----------|
D|--------5x-5x-5x--44-24--4-5x-5x-5x-|

Bridge
17.
G|---------------------------------------|
D|---------------------------------------|
A|---------------------------------------|
D|-0~--------0~----0~----0~--0~--0~--0~--|

"Now I grit my teeth..."
18.
G|-------------------------------------------------------------------------------|
D|-------------------------------------------------------------------------------|
A|-------------------------1111-3333-------------------------1111-3333-----------|
D|-000x----000x----000x--------------000x----000x----000x--------------3333-2222-|

"Now I grit my teeth..."
19.
G|-------------------------------------------------------------------------------|
D|-------------------------------------------------------------------------------|
A|------5~------5~------5~-1111-3333------5~------5~------5~-1111-3333-----------|
D|-000x----000x----000x--------------000x----000x----000x--------------3333-2222-|

"You said this would be forever..."
20.
G|---------------------------------------------------|
D|---------------------------------------------------|
A|-1-1-1-1-1-1-1-1-3-3-3-3-3-3-3-3-0~----------------|-- Each Time Slower
D|---------------------------------------------------|

"After today silence will haunt you..."
21.
G|----------------------------------------------------------------------------------|
D|----------------------------------------------------------------------------------|
A|-----------------------------1111-33----------------------------1111-3333---------|--x2
D|-000x--0000000x--0000000x-----------000x--0000000x--0000000x--------------3333-22-|


Lyrics:



You make me sick...
I'll tear out those diamond eyes I can't bear to see
Crimson spills on paper skin
They call this tragedy...

Remembering the nights when you'd whisper to me soft,
"Forever more my heart is yours"
Realize those words have died

As the life fades from your eyes all that I can say is
It may not be too late

If I can not be loved then none shall be
(Your face disgusts me, smile bear your lies)
Think of this as I softly kiss your blood glazed lips once more
(This broken trust will become your demise)
On this night this thing you call love dies

As the life fades from your eyes all that I can say is
It may be too late
Try again, make it perfect, make me worth it..or else
Die for all I care

I have put this off so long but its never too late
white knuckles clench as red eyes burn

Now I grit my teeth and finish what I know must be
Done to kill the memory of you
And you said this would be forever...

After today silence will haunt you
There will be no more forgiveness for what you've done

And you said this would be forever...



+++++++++++++++++++++++++++++++++
| RaiLeff                       |
| Underground__Dora@Hotmail.Com |
+++++++++++++++++++++++++++++++++
Suggest correction
Creating personal tab
Creating personal tab
You can edit any tab online and save it as your Personal.

You can edit, replace or remove any tab part or add personal notes – all changes will be seen only by you.

Personal tabs can be accessed anytime from any device, even offline.
Learn more »
Give kudos to tab author, rate the tab!
1 2 3 4 5
comments
print report bad tab
2 comments total.
+1 reply
wildsnail 60 Jun 10, 2008 08:17 PM

keep the alesana tabs coming!
i really appreciate it!

0 reply
Bass Shredder27 73 Sep 08, 2009 12:00 PM

Thanks man.. tab was absoulutly perfect...

guest
You may want to rate the tab now too:
select rating
Wanna post a correction for this tab? Suggest correction