Oops, an error
Loading. Please wait.

And They Call This Tragedy Tab

version 2
version 2

Whole song

Interactive

6,501 views 3 this week
14 commentsread comments
1 2 3 4 5
excellent!
x 7
add to favorites
launch autoscroll
font size
0
reset
how to read this tab
guitar tuner
Autoscroll
slow
fast
+/-
esc
set tempo
stop
Help us to improve Ultimate-Guitar.com Take our survey!
×
Author
Difficulty
Tuning
blake1221 711
intermediate
D A D G B E
----------------------------------------------------------------------------
               And They Call This Tragedy- Alesana
----------------------------------------------------------------------------
Tabbed by: Blake T.
Email:nubsk8r@comcast.net

Tuning:Drop =D
This song kicks anus and i would like to share my tab with you =]
please rate and enjoy!

Intro Guitar 1
e|----7---7---7---7---7-9-7h9p7--7-----------------------------------------|
B|---7-7-7-7-7-7-7-7-7-7-7------7-7----------------------------------------|
G|--7---7---7---7---7----------7---7---------------------------------------|
D|-------------------------------------------------------------------------|
A|-------------------------------------------------------------------------|
D|-------------------------------------------------------------------------|

Intro Guitar 2              "You make me sick!"
e|-------------------------|-----------------------------------------------|
B|-------------------------|-----------------------------------------------|
G|-------------------------|-----------------------------------------------|
D|-------------------------|-5-----7-----4---------------------------------|
A|-5-X16-7-X16-4-X16-5-X16-|-5-X16-7-X8--4-X5------------------------------|
D|-5-----7-----4-----5-----|-5-----7-----4---------------------------------|
   .     .     .     .

Verse Guitar 2                                   "Remembering the nights..."
e|-----------------------------------------------|-sorry-just-the-chords---|
B|----5----5----5---------5----5----5------------|-------------------------|
G|----6----6----6---------6----6----6-----X2-----|-------------------------|
D|-99---99---99---99---55---55---55---55------77-|-5-7-4-9-7-5-7-----------|
A|-99---99---99---99---55---55---55---55------77-|-5-7-4-9-7-5-7-----------|
D|-99---99---99---99---55---55---55---55------77-|-5-7-4-9-7-5-7-----------|

Chorus Guitar 1 (really fast)
e|-------------------------------------------------------------------------|
B|--------------------------------------------------12---12---12---12------|
G|--4-0-6-0-4-0-6-0-6-6-7---X6----11---11---9---9--------------------------|
D|-----------------------------------9----9---9---9----9----9----9---------|
A|-------------------------------------------------------------------------|
D|-------------------------------------------------------------------------|

Chorus Guitar 2 (chords, and figure rhythm out on your own)
e|-------------------------------------------------------------------------|
B|-------------------------------------------------------------------------|
G|-------------------------------------------------------------------------|
D|--9-------5-------7-------4----------------------------------------------|
A|--9-------5-------7-------4----------------------------------------------|
D|--9-------5-------7-------4----------------------------------------------|

Post Chorus Guitar 1    Verse 2 Guitar 1 (repeat through verse)
e|--------------------|----------------------------------------------------|
B|-10-10-7-7-7-7-7-7--|----------------------------------------------------|
G|---7--7-7-7-4-4-4-4-|-----------12---11---------12-11--------------------|
D|-------X2-----------|-9-11-12-9----9----9-11-12-------9------------------|
A|--------------------|----------------------------------------------------|
D|--------------------|----------------------------------------------------|

Verse 2 Guitar 1 (cont'd.)  Verse 2 Guitar 2 (chords only again, sorry)
e|------------------------|------------------------------------------------|
B|------------------------|------palm-mute-the-9's-and-you're-fine---------|
G|------------------------|------------------------------------------------|
D|-9-11-12-X4-12~---------|---5~----9--------5~----------------------------|
A|------------------------|---5~----9--------5~----------------------------|
D|------------------------|---5~----9--------5~----------------------------|

repeat chorus twice
Post 2nd Chorus Guitar 1  Post 2nd Chorus Guitar 2 (only play between the
e|----------------------|-hammer-on's-of-Guitar-1,-its-pretty-simple)------|
B|----------------------|--------------------------------------------------|
G|----------------------|--------------------------------------------------|
D|-11h9-9h7-7h4---------|------5-------------------------------------------|
A|----------------------|------5-------------------------------------------|
D|----------------------|------5-------------------------------------------|

Build-Up to the End (its 2 guitars but i was too lazy too divide it up lol)
e|-------------------------------------------------------------------------|
B|-11--11--11--11--11--11--11--11--11--11--11--11--11--11--11--11----------|
G|---14--14--14--14--14--14--14--14--14--14--14--14--14--14--14--14--------|
D|-0-------------------------------0-------0-------0---0---0---0-----------|
A|-0-------------------------------0-------0-------0---0---0---0-----------|
D|-0-------------------------------0-------0-------0---0---0---0-----------|

End
e|-------------------------------------------------------------------------|
B|-----1111-----1111-----1111----------------------------------------------|
G|-----1414-----1414-----1414----------------------------------------------|
D|----------------------------8888-10101010--------------------------------|
A|-000------000------000------8888-10101010--------------------------------|
D|-000------000------000------8888-10101010--------------------------------|
   ...      ...      ...

e|-------------------------------------------------------------------------|
B|-----1111-----1111-----1111----------------------------------------------|
G|-----1414-----1414-----1414---------------14141414-12121212--------------|
D|----------------------------8888-10101010-x-x-x-x--x-x-x-x---------------|
A|-000------000------000------8888-10101010-12121212-10101010--------------|
D|-000------000------000------8888-10101010--------------------------------|
   ...      ...      ...                           repeat end twice    

"You said this would be forever, you said this would be forever."
e|-------------------------------------------------------------------------|
B|-------------------------------------------------------------------------|
G|-------------------------------------------------------------------------|
D|-8-8-8-8-8-8-8-8-10-10-10-10-10-10-10-10--7~-----------------------------|
A|-8-8-8-8-8-8-8-8-10-10-10-10-10-10-10-10--7~-----------------------------|
D|-8-8-8-8-8-8-8-8-10-10-10-10-10-10-10-10--7~-----------------------------|
   . . . . . . . . .  .  .  .  .  .  .  .

Repeat end except don't play at the end "forever" part. Hope you liked the tab! 

| /  slide up
| \  slide down
| h  hammer-on
| p  pull-off
| ~  vibrato
| +  harmonic
| x  Mute note
============================================================================
Suggest correction new What's this?
You can suggest a correction to this tab. Community and Mods will review your correction and vote to approve or reject it.
comments
print report bad tab
14 comments total. Showing first comments.
0 reply
Xb4mvluvrX 276 wrote on July 30 2008, 10:43 am

thanks for tabbing this! the other tab wasnt so good... for some reason idk why people think its Drop D# its just Drop D cuz thats how Alesana really plays!

anyways awesome tab!! 5stars!

+1 reply
joseluis92 760 wrote on August 12 2008, 10:06 pm

you nailed it! i had been trying to find an accurate tab of this song but couldn't

could you tab the little section in between 0:21 and 0:22, it's like a series of hammer-ons and pull-offs
and also, i think that for rhythm guitar in the chorus, after the fast chord strumming there's a palm muted section that goes like this

-4-4-----4-4----------4-4-
-4-4-----4-4----------4-4-


great job anyways, 5 stars

0 reply
blake1221 711 wrote on August 14 2008, 05:22 pm

k ill try check back in like two days ^^
thanks for the rating

guest
You may want to rate the tab now too:
select rating
Please do not post tabs as comments. Select "correction" instead!