Oops, an error
Loading. Please wait.

Annabel bass

version 1
version 1

Whole song

Interactive

by Alesana
3,091 views 1 this week
no commentswrite comment
1 2 3 4 5
3 more votes to show rating
add to favorites
×
Save as Personal and add changes to this tab that will be seen only by you. Learn more ›
×
You can save this tab as Personal to edit and correct it or add notes. All changes will be seen only by you. Learn more »
launch autoscroll
font size
0
reset
guitar tuner
edit
Autoscroll
slow
fast
+/-
esc
set tempo
stop
Author
++++++++++++++++++++
| Alesana- Annabel |
++++++++++++++++++++


"I handed you a knife and my heart..."

Tuning: EADG

Intro
"How does the dagger feel now..."
1.
G|------------------------------------------------------------------------------|
D|------------------------------------------------------------------------------|
A|---------------------0-0-0~----0-0-0------------------------------------------|--x2
E|-1-1-1~----3-3-3~--------------------3-2-1-1-1~----3-3-3~----0-0-0~----0-0-0x-|

Verse
"How could I be so blind..."
2.
G|-----------------------------------------------------------------------------------------------|
D|-----------------------------------------------------------------------------------------------|
A|-00x----00x----000x---------------3h5p3-00x----00x----000x---------------3h5p3-----------------|
E|--------------------11x----33x-----------------------------11x----33x----------00000000-00000x-|

Chorus
"Imagine where you'd be know..."
3.
G|---------------------------------------------------------------------------|
D|---------------------------------------------------------------------------|
A|-00000000-00000000-33333333-33333333--------------0000---------------------|
E|-------------------------------------11111111-1111-----33333333-3333--44~--|

"I know now that I should have kept my eyes..."
4.
G|------------------------------------------------------------------------|
D|------------------------------------------------------------------------|
A|-00000000-00000000-33333333-33333333--------------0000------------------|
E|-------------------------------------11111111-1111-----33333333-3333333-|

Outro
"Just say to me..."
5.
G|---------------------------------------------------------------------------------|
D|---------------------------------------------------------------------------------|
A|-0~--------0~------------------3~--2~--0~--------0~------------------3-3-3-2-2-2-|
E|-----1-1~------1-1~--3~--0-0~--------------1-1~------1-1~--3~--0-0~--------------|

"Years spent watching in silence..."
6.
G|------------------------------------------------------------------------------|
D|------------------------------------------------------------------------------|
A|---------------------0-0-0~----0-0-0------------------------------------------|--x2
E|-1-1-1~----3-3-3~--------------------3-2-1-1-1~----3-3-3~----0-0-0~----0-0-0x-|

Verse
"How could I be so blind..."
7.
G|-----------------------------------------------------------------------------------------------|
D|-----------------------------------------------------------------------------------------------|
A|-00x----00x----000x---------------3h5p3-00x----00x----000x---------------3h5p3-----------------|
E|--------------------11x----33x-----------------------------11x----33x----------00000000-00000x-|

Chorus
"Imagine where you'd be know..."
8.
G|---------------------------------------------------------------------------|
D|---------------------------------------------------------------------------|
A|-00000000-00000000-33333333-33333333--------------0000---------------------|
E|-------------------------------------11111111-1111-----33333333-3333--44~--|

"I know now that I should have kept my eyes..."
9.
G|------------------------------------------------------------------------|
D|------------------------------------------------------------------------|
A|-00000000-00000000-33333333-33333333--------------0000------------------|
E|-------------------------------------11111111-1111-----33333333-3333333-|

Outro
"Just say to me..."
10.
G|------------------------------------------------------------------------------|
D|------------------------------------------------------------------------------|
A|-0~--------0~------------------3~--2~--0~--------0~------------------3~--2~---|
E|-----1-1~------1-1~--3~--0-0~--------------1-1~------1-1~--3~--0-0~-----------|

Bridge
"Oh, is it my fault..."
11.
G|----------------------------------------------2~--------5~------------2~--------7-5-3-----|
D|--------------------------------------5---------------------------3~-----3--5~--------3-5-|
A|-0~--------3~------------3~-------------5/7-5---------------------------------------------|
E|---------------------1~-----1~-1--3~------------------------------------------------------|

"Oh, should I blame you..."
12.
G|-2~----------5~--5h7p5~----2~----5~--------7----9~----5h7p5~-----2h5p2~------------------|
D|----3-3h5~---5~----------5-3~--3------5~-----5--7~--------5~---------3~----5h7p5~--------|
A|--------------------------------------5~---------------------------------------5~--------|
E|-----------------------------------------------------------------------------------------|

"Oh, is it my fault..."
13.
G|-------------------------------------------------------------------------------|
D|---------------------------------------------2/7~------------------------------|
A|-----------------------------------------------0-0-0-0-0-0-0-0-----------------|
E|---------------------------------------------------------------1-1-1-1-3-3-3-3-|

14.
G|---------------------------------------------------------------------------------|
D|---------------------------------------------------------------------------------|
A|-0~--------0~----------------------------0~--------0~----------------------------|
E|---------------------1~--------3~----------------------------1~--------3~--------|

"Die! Just die!"
15.
G|-------------------------------------------------------------|
D|-------------------------------------------------------------|
A|-0xx0xx0-000000-0xx0xx0-000000-------------------------------|--x2
E|-------------------------------1xx1xx1-111111-3xx3xx3-333333-|

"You are scum! You are filth..."
16.
G|-------------------------------------------------------------------------|
D|-------------------------------------------------------------------------|
A|-00000000-00000000-00000000-00000000-------------------------------------|
E|-------------------------------------11111111-11111111-33333333-33333333-|

"Choke on blood as your knife ends the show..."
17.
G|-----------------------------------------------------------------|
D|-----------------------------------------------------------------|
A|-0xx0xx0xx0xx0x0-0xx0xx0xx0xx0x0---------------------------------|
E|---------------------------------1xx1xx1xx1xx1x1-3xx3xx3xx3xx3x3-|

"I dont think they dig graves..."
18.
G|-----------------------------------------------------------------------------------------|
D|-----------------------------------------------------------------------------------------|
A|-0x----0x-0x----0~-------------------------0x----0x-0x----0~-----------------------------|
E|----------------------1x----1x-3x----4~-------------------------1x----1x-3x----4~--------|

Outro
"I handed you a knife and my heart..."
19.
G|-----------------------------------------------------------------|
D|-----------------------------------------------------------------|
A|-0-0-0-0-0-0-0-0-0-0-0-0-0-0-0-0---------------------------------|
E|---------------------------------3-3-3-3-3-3-3-3-3-3-3-3-3-3-3-3-|

"And now the dream is over..."
20.
G|-----------------------------------------------------------------|
D|-----------------------------------------------------------------|
A|-3-3-3-3-3-3-3-3-3-3-3-3-3-5-3-5---------------------------------|
E|---------------------------------1-1-1-1-1-1-1-1-1-1-1-1-1-1-1-1-|

"I handed you a knife and my heart..."
21.
G|-----------------------------------------------------------------|
D|-----------------------------------------------------------------|
A|-0-0-0-0-0-0-0-0-0-0-0-0-0-0-0-0---------------------------------|
E|---------------------------------3-3-3-3-3-3-3-3-3-3-3-3-3-3-3-3-|

"And now the dream is over..."
22.
G|-----------------------------------------------------------------|
D|-----------------------------------------------------------------|
A|-3-3-3-3-3-3-3-3-3-3-3-3-3-5-3-5---------------------------------|
E|---------------------------------1-1-1-1-1-1-1-1-1-1-1-1-1-1-1-1-|

Verse
"How could I be so blind..."
23.
G|-----------------------------------------------------------------------------------------------|
D|-----------------------------------------------------------------------------------------------|
A|-00x----00x----000x---------------3h5p3-00x----00x----000x---------------3h5p3-----------------|
E|--------------------11x----33x-----------------------------11x----33x----------00000000-00000x-|

Chorus
"Imagine where you'd be know..."
24.
G|---------------------------------------------------------------------------|
D|---------------------------------------------------------------------------|
A|-00000000-00000000-33333333-33333333--------------0000---------------------|
E|-------------------------------------11111111-1111-----33333333-3333--44~--|

"I know now that I should have kept my eyes..."
25.
G|------------------------------------------------------------------------|
D|------------------------------------------------------------------------|
A|-00000000-00000000-33333333-33333333--------------0000------------------|
E|-------------------------------------11111111-1111-----33333333-3333333-|

Outro
"I handed you a knife and my heart..."
26.
G|-----------------------------------------------------------------|
D|-----------------------------------------------------------------|
A|-0-0-0-0-0-0-0-0-0-0-0-0-0-0-0-0---------------------------------|
E|---------------------------------3-3-3-3-3-3-3-3-3-3-3-3-3-3-3-3-|

"And now the dream is over..."
27.
G|-----------------------------------------------------------------|
D|-----------------------------------------------------------------|
A|-3-3-3-3-3-3-3-3-3-3-3-3-3-5-3-5---------------------------------|
E|---------------------------------1-1-1-1-1-1-1-1-1-1-1-1-1-1-1-1-|

"I handed you a knife and my heart..."
28.
G|-----------------------------------------------------------------|
D|---------------------------2-0-----------------------------------|
A|-0-0-0-0-0-0-0-0-0-0-0-0-0-----3-------------------------3-3-5-7-|
E|---------------------------------3-3-3-3-3-3-3-3-3-3-3-3---------|

"And now the dream is over..."
29.
G|-----------------------------------------------------------------|
D|-------------------------0-2-0-5-------------------------0-2-3-5-|
A|-3-3-3-3-3-3-3-3-3-3-3-3-----------------------------------------|
E|---------------------------------1-1-1-1-1-1-1-1-1-1-1-1---------|

"I handed you a knife and my heart..."
30.
G|---------------------------------------------------------------------------------|
D|---------------------------------------------------------------------------------|
A|-0-0x------------------------------------3-3x------------------------------------|
E|---------------------3-3x------------------------------------1-1x----------------|

31.
G|-------------------------------------|
D|-------------------------------------|
A|-0~----------------------------------|
E|-------------------------------------|


Lyrics:

How does the dagger feel now when you're on the receiving end?
If this is what you call betrayal
Then this is what I call revenge

How could I be so blind?
I guess I fell in love too quickly...
But I'm fine.

Imagine where you'd be now if you only knew.
The one you love is the one who's killing you.
I trusted you too much.
I know now that I should have kept my eyes wide open.
The first time that we kissed.
I'll bury you for this.

Just say to me that this time is the last time.
And I'll pretend that somehow I know we'll be fine.

Years spent watching in silence as your illness spilled onto page.
Those were the last days I spend with you.
Before you left, before he came.

Just say to me that this time is the last time.
And I'll pretend I'm fine.

It is my fault?
You fell into that illusion you've been living discretely.
Should I blame you in the end?
Did you ever think the sketches would take over completely?

Die!
Just die!
You are scum!
You are filth!
Choke on blood as your knife ends the show! Writhe in pain you thought you'd never know!
I don't think they dig graves close enough to hell for the likes of you!

I handed you a knife and my heart, and now the dream is over...



+++++++++++++++++++++++++++++++++
| RaiLeff                       |
| Underground__Dora@Hotmail.Com |
+++++++++++++++++++++++++++++++++

            
            
Suggest correction
Creating personal tab
Creating personal tab
You can edit any tab online and save it as your Personal.

You can edit, replace or remove any tab part or add personal notes – all changes will be seen only by you.

Personal tabs can be accessed anytime from any device, even offline.
Learn more »
Give kudos to tab author, rate the tab!
1 2 3 4 5
comments
print report bad tab
guest
You may want to rate the tab now too:
select rating
Wanna post a correction for this tab? Suggest correction