Oops, an error
Loading. Please wait.

Beautiful In Blue Tab

version 3
version 3

Intro

Whole song

Interactive

885 views 1 this week
no commentswrite comment
1 2 3 4 5
please rate
add to favorites
launch autoscroll
font size
0
reset
how to read this tab
guitar tuner
Tab Pro tools
  • play this tab
  • loop segment
  • change instrument
  • show fretboard
  • metronome
Autoscroll
slow
fast
+/-
esc
set tempo
stop
Contributor
Tuning
D A D G B E
Drop D

 1. (0:00-0:15)
|-------------------------------------------|
|------------------------10-----------10----|
|-7-7-7-7-7-7--7-7-7-7-7-7--7-7-7-7-7-9-----|
|-9-9-9-9-9-9--7-7-7-7-7----5-5-5-5-5----7~-|
|----------------------------------------7~-|
|----------------------------------------7~-|
  . . . . .    . . . . .    . . . . .   

 2. (0:16-0:28)
|--------------------------------------------------------|
|--------------------------------------------------------|
|------------------11-9----------------------------------|
|--------------------------------------------------------|
|-9-9-9-9--7-7-7-7-9--7-5-5-5-5--7-7-7-7-7-7-7-7-7-7-7-7-|
|-9-9-9-9--7-7-7-7------5-5-5-5--7-7-7-7-7-7-7-7-7-7-7-7-|

 
 3. (0:29 x4)         (0:32)  
|-------------|------------------------------------|
|-------------|------------------------------------|
|-7-6-7-9-7-6-|------------------------9-9-----7-7-|
|-------------|--7-7-7-7--7-7-7-7--7-7-----7-7-----|
|-------------|--7-7-7-7--7-7-7-7--7-7-----7-7-----|
|-------------|--7-7-7-7--7-7-7-7--7-7-----7-7-----|
  . . . . . .    . . . .  . . . .  . .     . .

 (0:35 x4)
|--------------|--------------------------------|
|--------------|--------------------------------|
|-9-7-9-11-9-7-|------------------------9-9-----|
|--------------|--7-7-7-7--7-7-7-7--7-7------4~-|
|--------------|--7-7-7-7--7-7-7-7--7-7------4~-|
|--------------|--7-7-7-7--7-7-7-7--7-7------4~-|
  . . . . . ..    . . . .  . . . .  . .

 4. (0:42 x2)                   (0:46-0:50 x2)
|-----------------------------|-----0-------0-|
|-----------------------------|---------------|
|-4-0-6-0-7-0-4-0-6-0-2-0-2-4-|-6h7---7-6h7---|
|-----------------------------|---------------|
|-----------------------------|---------------|
|-----------------------------|---------------|

 (0:50-0:54)                                      (0:55-0:59)
|--------------------------------------------------|---------|
|--------------------------------------------------|-------7-|
|-0-4-6-0-6-7-0-4-6-0-6-7-0-7-9-0-6-7-0-7-9-0-9-11-|-6h7p6---|
|--------------------------------------------------|---------|
|--------------------------------------------------|---------|
|--------------------------------------------------|---------|

|-------0-----0-----0-------0-|
|-----------------------------|
|-7-6h7---6h7---6h7---7-6h7---|
|-----------------------------|
|-----------------------------|
|-----------------------------|

 (0:59-1:02)
|-----------------------------------|
|-----------------------------------|
|--------------6-7-----7-9-----9-11-|
|-9-9-9-11-9-9-----7-7-----5-5------|
|-9-9------9-9-----7-7-----5-5------|
|-9-9------9-9-----7-7-----5-5------|
                   . .     . .

(1:03-1:25) Repeat 3

5. (1:16-1:24)   x2
|------------------|------------------------------------|
|------------------|------------------------------------|
|----------7-6/7\6-|----------7-6/7\6-----------7-6/7\6-|
|-9-9--9-9---------|-7-7--7-7----------5-5--5-5---------|
|-9-9--9-9-5-4/5\4-|-7-7--7-7-5-4/5\4--5-5--5-5-5-4/5\4-|
|-9-9--9-9---------|-7-7--7-7----------5-5--5-5---------|

 (1:24-1:28) x2
|--------------------|
|--------------------|
|----------11-9/11\9-|
|-9-9--9-9-----------|
|-9-9--9-9-9--7/9-\7-|
|-9-9--9-9-----------|

(1:29-1:32)
|--------------------------------------------|
|--------------------------------------------|
|-9-7-9-11-9-7-9-7-9-7-11-9-7-9h11p9-11-6-7~-|
|--------------------------------------------|
|--------------------------------------------|
|--------------------------------------------|

(1:33-1:53) Repeat 4

6. (1:54-2:00)
|--------------------------|---------------|
|-9-7-6---7-6--9-7-6---7-6-|---------------|
|-------7------------7-----|-7~-9~-11~-12\-|
|--------------------------|---------------|
|--------------------------|---------------|
|--------------------------|---------------|

(2:01-2:13)
|------------------------------------------|
|-------10---10-7---7--------10---10-7---7-|
|-6~-7~----9------9----7~-9~----9------9---|
|------------------------------------------|
|------------------------------------------|
|------------------------------------------|

(2:14-2:26) clean
|----------------------|-6--|
|-10~----10---10-7---7-|-10-|
|-----9~----9------9---|----|
|----------------------|----|
|----------------------|----|
|----------------------|----|

7. (2:27-2:39) x3                       4th time
|---------------------------|-------------------|
|-----------------5-5-5-----|-------------------|
|-6-6-6---7-7-7-----------6-|-6-6-6---7-7-7---6-|
|-4-4-4---4-4-4---4-4-4---4-|-4-4-4---4-4-4---4-|
|-4-4-4---4-4-4---4-4-4---4-|-4-4-4---4-4-4---4-|
|-4-4-4---4-4-4---4-4-4---4-|-4-4-4---4-4-4---4-|

(2:40-3:01) Repeat 4

8. (3:02-3:18)
|-----0-------0-----0-------0-|
|-----------------------------|
|-6h7---7-6h7---6h7---7-6h7---|
|-----------------------------|
|-----------------------------|
|-----------------------------|

|---------------------------------|
|-----10-------10-----10-------10-|
|-6h7----7-6h7----6h7----7-6h7----|
|---------------------------------|
|---------------------------------|
|---------------------------------|

|-----0-------0-----0-------0-|
|-----------------------------|
|-6h7---7-6h7---6h7---7-6h7---|
|-----------------------------|
|-----------------------------|
|-----------------------------|

 End
|----------------------------|
|----------------------------|
|--------------6-7-----12-11-|
|-9-9-9-11-9-9-----9-9-------|
|-9-9------9-9-----9-9-10-9--|
|-9-9------9-9-----9-9-------|
comments
We did not receive enough feedback on this tab! Please rate:
print report bad tab
1 2 3 4 5
I want to post or [tab]
guest
You may want to rate the tab now too:
select rating
Please do not post tabs as comments. Select "correction" instead!