Oops, an error
Loading. Please wait.

Better Luck Next Time Prince Charming bass

version 1
version 1

Whole song

Interactive

by Alesana
2,037 views 1 this week
no commentswrite comment
1 2 3 4 5
3 more votes to show rating
add to favorites
×
Save as Personal and add changes to this tab that will be seen only by you. Learn more ›
×
You can save this tab as Personal to edit and correct it or add notes. All changes will be seen only by you. Learn more »
launch autoscroll
font size
0
reset
guitar tuner
edit
Autoscroll
slow
fast
+/-
esc
set tempo
stop
+++++++++++++++++++++++++++++++++++++++++++++++++++
| Alesana- Better Luck Next Time, Prince Charming |
+++++++++++++++++++++++++++++++++++++++++++++++++++

"Come and claim your queen!!"


Tuning: Drop D (DADG)


Intro
1.
G|-----------------------------------------------|
D|-----------------------------------------------|
A|-----------------------------------------------|--x2
D|-55x-------55x-------1~--------33x----33x--11x-|

Verse
"Shadows dance around me as..."
2.
G|-----------------------------------------------------------------------------------------|
D|-----------------------------------------------------------------------------------------|
A|-----------------------------------------------------------------------------------------|
D|-5-555--555-5-555--555-5-555--555-5-555--555-3-333--333-3-333--333-3-333--333-3-333--333-|

"So close and yet so far away..."
3.
G|-----------------------------------------------------------------|
D|-----------------------------------------------------------------|
A|-----------------------------------------------------------------|
D|-1111x---1111x---1111x---1111x---0000x---0000x---1111x---1111x---|

Pre-Chorus
"A simple kiss to bring her back..."
4.
G|-------------------------------------0~----2~----3~--------0~----2~----3x--------|
D|-------------------00000000-00000000---------------------------------------------|
A|-11111111-11111111---------------------------------------------------------------|
D|---------------------------------------------------------------------------------|

Chorus
"Not all knights in shining armor can make your dreams come true..."
5.
G|-------------------------------------------------------------------------|
D|-------------------------------------00000000-00000000-00000000-33333333-|
A|-11111111-11111111-33333333-33333333-------------------------------------|
D|-------------------------------------------------------------------------|

"He's not quite as charming as he may seem..."
6.
G|-------------------------------------------------------------------------|
D|-------------------------------------00000000-00000000-00000000----------|
A|-11111111-11111111-33333333-33333333----------------------------33333333-|
D|-------------------------------------------------------------------------|

Outro
"Come and claim your queen!"
7.
G|-------------------------------------------|
D|-------------------------------------------|
A|-------------------------------------------|--x4
D|-1~-1x--xxx--1~-1x--xxx--5~-5x--xxx--5~-3~-|

Chorus
"Not all knights in shining armor can make your dreams come true..."
8.
G|-------------------------------------------------------------------------|
D|-------------------------------------00000000-00000000-00000000-33333333-|
A|-11111111-11111111-33333333-33333333-------------------------------------|
D|-------------------------------------------------------------------------|

"He's not quite as charming as he may seem..."
9.
G|-------------------------------------------------------------------------|
D|-------------------------------------00000000-00000000-00000000----------|
A|-11111111-11111111-33333333-33333333----------------------------33333333-|
D|-------------------------------------------------------------------------|

Outro
"Come and claim your queen!"
10.
G|--------------------|
D|--------------------|
A|-1x----1x----3x--0x-|
D|--------------------|

Bridge
"You're pathetic..."
11.
G|--------------------------------|
D|--------------------------------|
A|--------------------------------|
D|-\00000000-00000000-00000000-0x-|

"She had faith in me, I was her only escape..."
12.
G|--------------------------------------------------------------------------------|
D|--------------------------------------------------------------------------------|
A|-11111111-11111111-33333333-33333333--------------------------------------33-00-|
D|-------------------------------------00x-00x-00x-00x-0000-00x-00x-00x-00x-------|

Pre-Chorus
"A simple kiss to bring her back..."
13.
G|-------------------------------------0~----2~----3~--------0~----2~----3x--------|
D|-------------------00000000-00000000---------------------------------------------|
A|-11111111-11111111---------------------------------------------------------------|
D|---------------------------------------------------------------------------------|

Chorus
"Not all knights in shining armor can make your dreams come true..."
14.
G|-------------------------------------------------------------------------|
D|-------------------------------------00000000-00000000-00000000-33333333-|
A|-11111111-11111111-33333333-33333333-------------------------------------|
D|-------------------------------------------------------------------------|

"He's not quite as charming as he may seem..."
15.
G|-------------------------------------------------------------------------|
D|-------------------------------------00000000-00000000-00000000----------|
A|-11111111-11111111-33333333-33333333----------------------------33333333-|
D|-------------------------------------------------------------------------|

17.
G|-------------------------------------------------------------------------|
D|-------------------------------------00000000-00000000-00000000-33333333-|
A|-11111111-11111111-33333333-33333333-------------------------------------|
D|-------------------------------------------------------------------------|

18.
G|-------------------------------------------------------------------------|
D|-------------------------------------00000000-00000000-00000000----------|
A|-11111111-11111111-33333333-33333333----------------------------33333333-|
D|-------------------------------------------------------------------------|

Outro
"Come and claim your queen!"
19.
G|-------------------|
D|-------------------|
A|-1x----1x----3x----|
D|-------------------|


Lyrics:



Shadows dance around me as I race alone
I will never rest until she's in my arms
So close and yet so far away...
A simple kiss to bring her back, to make this story end

Not all knights in shining armor can make your dreams come true
He's not quite as charming as he may seem
Come and claim your queen!

The wild beasts are ravenous, they will soon devour you
Dark howls echo bitter cries but they fall upon deaf ears

You're pathetic! What good do you do?!?
She had faith in me, I was her only escape
A most deep and subtle poison welcomes her unblinking eyes to eternal sleep
If I had shown, she would be mine
Who is the fairest of all? Tell me again! Tell me again! You know its me!




+++++++++++++++++++++++++++++++++
| RaiLeff                       |
| Underground__Dora@Hotmail.Com |
+++++++++++++++++++++++++++++++++

            
            
Suggest correction
Creating personal tab
Creating personal tab
You can edit any tab online and save it as your Personal.

You can edit, replace or remove any tab part or add personal notes – all changes will be seen only by you.

Personal tabs can be accessed anytime from any device, even offline.
Learn more »
Give kudos to tab author, rate the tab!
1 2 3 4 5
comments
print report bad tab
guest
You may want to rate the tab now too:
select rating
Wanna post a correction for this tab? Suggest correction