Oops, an error
Loading. Please wait.

Congratulations I Hate You bass

version 1
version 1

Whole song

Interactive

by Alesana
5,151 views 6 this week
3 commentsread comments
1 2 3 4 5
x 6
add to favorites
×
Save as Personal and add changes to this tab that will be seen only by you. Learn more ›
×
You can save this tab as Personal to edit and correct it or add notes. All changes will be seen only by you. Learn more »
launch autoscroll
font size
0
reset
guitar tuner
edit
Autoscroll
slow
fast
+/-
esc
set tempo
stop
Drop D  ( I bet it is )
If not then pm me lolz

"No one ever said that life was fair.." x2
1.
|------------------------------------------------------|
|------------------------------------------------------|
|-33333333333333333333333333---------------------------|
|---------------------------00000000000000000000000000-|

"Taste you vanity.." x2
2.
|------------------------------------|
|------------------------------------|
|-33-33-3-33-33-3--------------------|
|-----------------00-00-0-00-00-0----|

"You took them all.."
3.
|-----------------|
|-----------------|
|-----------------|
|-0~--0~--0~--0~--|

"Fantasize for tragedy.."
4.
|----------------------------|
|----------------------------|
|-2~--3~-33333333--33x--55x--|
|----------------------------|

Chorus
"Beg me ..."
5.
|-------------------------------------------------------|
|-------------------------------------------------------|
|-33333333333333------------22222222222-33333333-33x-55x|
|---------------000000000000----------------------------|

"Suffer alone.."
6.
|---| 
|---|
|---|
|-0~|

"I lust to see you.." x2
7.
|---------------------------------|
|---------------------------------|
|-3333x---2222x---7777x---5555x---|
|---------------------------------|

8.
|-----------------|
|-----------------|
|-33x-55x---------|
|-----------------|

Chorus
"Beg me ..."
9.
|-------------------------------------------------------|
|-------------------------------------------------------|
|-33333333333333------------22222222222-33333333-33x-55x|
|---------------000000000000----------------------------|

"Send stares.."
10.
|-----------------------------------------------------------------|
|-----------------------------------------------------------------|
|-3-33-3-3x-33-3--7x-77-7-7x-77-7-2x-22-2-2x-22-2-3x-33-3-33x-55x-|
|-----------------------------------------------------------------|

Bass solo...* ~x: Let ring then mute.. About x6
11.
|------------------------------------------------------|
|----------5~x------------------------5~x--------------|
|----33-22--------33-22-0~x-----33-22-------3-2x-2-0x--|
|-00-----------00------------00-----------0------------|

"Fantasize for tragedy...."
12.
|----------------------------|
|----------------------------|
|-2~--3~-33333333--33x--55x--|
|----------------------------|

Now comes chorus and it ends

That's it.. Great song, hope you enjoy and please rate :D

RaiLeff
Underground_Dora@hotmail.com

            
            
Suggest correction
Creating personal tab
Creating personal tab
You can edit any tab online and save it as your Personal.

You can edit, replace or remove any tab part or add personal notes – all changes will be seen only by you.

Personal tabs can be accessed anytime from any device, even offline.
Learn more »
comments
print report bad tab
3 comments total.
+1 reply
RozzD 10 Sep 14, 2014 01:15 PM

"No one ever said that life was fair.." x2
1.
|------------------------------------------------------|
|------------------------------------------------------|
|-11111111111111111111111111---------------------------|
|---------------------------00000000000000000000000000-|

"Taste you vanity.." x2
2.
|------------------------------------|
|------------------------------------|
|-11-11-1-11-11-1--------------------|
|-----------------00-00-0-00-00-0----|

"You took them all.."
3.
|-----------------|
|-----------------|
|-----------------|
|-0~--0~--0~--0~--|

"Fantasize for tragedy.."
4.
|----------------------------|
|----------------------------|
|-0~--1~-11111111--11x--33x--|
|----------------------------|

Chorus
"Beg me ..."
5.
|-------------------------------------------------------|
|-------------------------------------------------------|
|-1111111111111-------------00000000000-11111111-11x-33x|
|---------------000000000000----------------------------|

"Suffer alone.."
6.
|---|
|---|
|---|
|-0~|

"I lust to see you.." x2
7.
|---------------------------------|
|---------------------------------|
|-1111x---0000x---5555x---3333x---|
|---------------------------------|

|-----------------|
|-----------------|
|-11x-33x---------|
|-----------------|

Chorus
"Beg me ..."
9.
|-------------------------------------------------------|
|-------------------------------------------------------|
|-1111111111111-------------00000000000-11111111-11x-33x|
|---------------000000000000----------------------------|

"Send stares.."
10.
|-----------------------------------------------------------------|
|-----------------------------------------------------------------|
|-1-11-1-1x-11-1--5x-55-5-5x-55-5-0x-00-0-0x-00-0-1x-11-1-11x-33x-|
|-----------------------------------------------------------------|

Bass solo...* ~x: Let ring then mute.. About x6
11.
|------------------------------------------------------|
|----------3~x------------------------3~x--------------|
|----11-00--------11-00-0~x-----11-00-------1-0x-0-0x--|
|-00-----------00------------00-----------0------------|

"Fantasize for tragedy...."
12.
|----------------------------|
|----------------------------|
|-0~--1~-11111111--11x--33x--|
|----------------------------|

I noticed all of the notes on the A string were a step up too high and so I just thought I'd rewrite it so that it sounds a little more efficient, other than that, great tab!

0 reply
RozzD 10 Sep 14, 2014 01:19 PM

Intro :
|----------------------------|
|----------------------------|
|-1~-------1~----------------|
|------0~--------0~----------|

0 reply
gee842 10 Mar 01, 2016 04:49 AM

sounds like it should be in D standard according to the ta(DGCF)

guest
You may want to rate the tab now too:
select rating
Wanna post a correction for this tab? Suggest correction