Oops, an error
Loading. Please wait.

Congratulations I Hate You tab

version 1
version 1

Whole song

Interactive

by Alesana
17,609 views 12 this week
3 commentsread comments
1 2 3 4 5
x 6
add to favorites
×
Save as Personal and add changes to this tab that will be seen only by you. Learn more ›
×
You can save this tab as Personal to edit and correct it or add notes. All changes will be seen only by you. Learn more »
launch autoscroll
font size
0
reset
how to read this tab
guitar tuner
edit
Autoscroll
slow
fast
+/-
esc
set tempo
stop
#----------------------------------PLEASE NOTE--------------------------------#
#This file is the author's own work and represents their interpretation of the#
#song. You may only use this file for private study, scholarship, or research.#
#-----------------------------------------------------------------------------#
#-- File created with Instab - http://www.pconline.com/~smcarey/instab.html --#
#-----------------------------------------------------------------------------#

Author/Artist: Alesana www.alesanamusic.com
Title: Congratulations I Hate You
Transcribed by:
Intro
------------------------------------------------------------------------------|
------------------------------------------------------------------------------|
------------------10-------8--------------------------------------------------|
----10----10----10-------10---------------------------------------------------|
--8------0-----8--------0-----------------------------------------------------|
-8------0-----8--------0------------------------------------------------------|


------------------------------------------------------------------------------|
------------------------------------------------------------------------------|
------------------------------------------------------------------------------|
-1----0----1------0-----------------------------------------------------------|
-1----0----1------0-----------------------------------------------------------|
-1----0----1------0-----------------------------------------------------------|

Verse x4
------------------------------------------------------------------------------|
------------------------------------------------------------------------------|
------------------------------------------------------------------------------|
-1111111111111111000000000000000----------------------------------------------|
-1111111111111111000000000000000----------------------------------------------|
-1111111111111111000000000000000----------------------------------------------|
 xxxxxxxxxxxxxxxxxxxxxxxxxxxxxxx

------------------------------------------------------------------------------|
------------------------------------------------------------------------------|
------------------------------------------------------------------------------|
-11-11-1-11-11-1-00-00-0-00-00-0-11-11-1-11-11-1-00-00-0-00-00-0--------------|
-11-11-1-11-11-1-00-00-0-00-00-0-11-11-1-11-11-1-00-00-0-00-00-0--------------|
-11-11-1-11-11-1-00-00-0-00-00-0-11-11-1-11-11-1-00-00-0-00-00-0--------------|


------------------------------------------------------------------------------|
------------------------------------------------------------------------------|
------------------------------------------------------------------------------|
-5-3-0-5-3-0-5-3-0-5-3-0------------------------------------------------------|
-5-3-0-5-3-0-5-3-0-5-3-0------------------------------------------------------|
-5-3-0-5-3-0-5-3-0-5-3-0------------------------------------------------------|

figure out strumming
|-----|
-------------------------------------------------------------------------------|
-------------------------------------------------------------------------------|
-------------------------------------------------------------------------------|
-5--7---------------------55-33-55-33------------------------------------------|
-3--5---------------------55-33-55-33------------------------------------------|
-------------------------------------------------------------------------------|

Chorus
------------------------------------------------------------------------------|
------------------------------------------------------------------------------|
------------------------------------------------------------------------------|
-1111111111111111-5555555555555555-1111111111111111-5555555555555555--55-55---|
-1111111111111111-5555555555555555-1111111111111111-5555555555555555--55-55---|
-1111111111111111-5555555555555555-1111111111111111-5555555555555555--55-55---|


------------------------------------------------------------------------------|
------------------------------------------------------------------------------|
------------------------------------------------------------------------------|
-5~---////////////--------1111---1111---1111---1111---1111--55-55-------------|
-5~---Pickslide---------  1111---1111---1111---1111---1111--55-55-------------|
-5~--////////////---------1111---1111---1111---1111---1111--55-55-------------|

Chorus
------------------------------------------------------------------------------|
------------------------------------------------------------------------------|
------------------------------------------------------------------------------|
-1111111111111111-5555555555555555-1111111111111111-5555555555555555----------|
-1111111111111111-5555555555555555-1111111111111111-5555555555555555----------|
-1111111111111111-5555555555555555-1111111111111111-5555555555555555----------|


------------------------------------------------------------------------------|
------------------------------------------------------------------------------|
------------------------------------------------------------------------------|
-11-1-1-11-1-1-00-0-0-00-0-0-11-1-1-11-1-1-00-0-0-00-0-0----------------------|
-11-1-1-11-1-1-00-0-0-00-0-0-11-1-1-11-1-1-00-0-0-00-0-0----------------------|
-11-1-1-11-1-1-00-0-0-00-0-0-11-1-1-11-1-1-00-0-0-00-0-0----------------------|

                  Figure out strumming
                  |--------------------------------------------------------------|
---------------------------------------------------------------------------------|
---------------------------------------------------------------------------------|
---------------------------------------------------------------------------------|
-0~---0~--11-11----1-0--------------5-------7--------55-55-----------------------|
-0~---0~--11-11----1-0--------------3-------5--------55-55-----------------------|
-0~---0~--11-11----1-0-------------------------------55-55-----------------------|

Chorus
------------------------------------------------------------------------------|
------------------------------------------------------------------------------|
------------------------------------------------------------------------------|
-1111111111111111-5555555555555555-1111111111111111-5555555555555555-11-1-1---|
-1111111111111111-5555555555555555-1111111111111111-5555555555555555-11-1-1---|
-1111111111111111-5555555555555555-1111111111111111-5555555555555555-11-1-1---|


------------------------------------------------------------------------------------|
------------------------------------------------------------------------------------|
------------------------------------------------------------------------------------|
-11-1-1-00-0-0-00-0-0-11-1-1-11-1-1-00-0-0-0~--0~~~~--------------------------------|
-11-1-1-00-0-0-00-0-0-11-1-1-11-1-1-00-0-0-0~--0~~~~--------------------------------|
-11-1-1-00-0-0-00-0-0-11-1-1-11-1-1-00-0-0-0~--0~~~~--------------------------------|

            
            
Suggest correction
Creating personal tab
Creating personal tab
You can edit any tab online and save it as your Personal.

You can edit, replace or remove any tab part or add personal notes – all changes will be seen only by you.

Personal tabs can be accessed anytime from any device, even offline.
Learn more »
comments
print report bad tab
3 comments total.
0 reply
Dominic_91 31 Apr 08, 2006 02:15 PM

Good Job But Ive Found 1 Mistake..Ö
The Last Pick of the intro is : 9 Not 8

Greedzz DOminic

0 reply
LEMAYZING57 37 Jul 04, 2006 02:33 PM

Alright, tab is ok but wrond in a lot of parts, instead of playing this:

|--------------|
|--------------|
|--------------|
|--1--0--1--0--|
|--1--0--1--0--|
|--1--0--1--0--|

Play:
|--------------|
|--------------|
|--------------|
|--8--0--8--0--|
|--8--0--8--0--|
|--8--0--8--0--|

Some parts are correct but most arent, Intro on the guitar instead of piano is fantastic though...

0 reply
raewskii 10 Sep 28, 2015 08:56 AM

------------------------------------------------------------------------------|
------------------------------------------------------------------------------|
------------------10-------9--------------------------------------------------|
----10----10----10-------10---------------------------------------------------|
--8------0-----8--------0-----------------------------------------------------|
-8------0-----8--------0------------------------------------------------------|

guest
You may want to rate the tab now too:
select rating
Wanna post a correction for this tab? Suggest correction