Oops, an error
Loading. Please wait.

Daggers Speak Louder Than Words bass

version 1
version 1

Whole song

Interactive

by Alesana
1,512 views 1 this week
no commentswrite comment
1 2 3 4 5
1 last vote to show rating
add to favorites
×
Save as Personal and add changes to this tab that will be seen only by you. Learn more ›
×
You can save this tab as Personal to edit and correct it or add notes. All changes will be seen only by you. Learn more »
launch autoscroll
font size
0
reset
guitar tuner
edit
Autoscroll
slow
fast
+/-
esc
set tempo
stop
Author
Difficulty
Alesana- Daggers Speak Louder Than Words
Bass Tab :D

"Eyes open to splattered blood.." 
1.
G|----------------------------------------------|
D|----------------------------------------------|
A|-2x-222x-22-2x-222x-22------------------------|
E|-----------------------3x-333x-33-5x-55-2x-22-|

"Shifting thoughts no slow with venom.."
2.
G|----------------------------------------------|
D|----------------------------------------------|
A|-2x-222x-22-2x-222x-22------------------------|
E|-----------------------3x-333x-33-5x-55-2x-22-|

"I've lost you..For good.."
3.
G|--------|
D|--------|
A|--------|
E|-3~-5~--|

"Your once gentle words.."   * Not 100%  sure 'bout this part
4.
G|---------------------------------------|
D|---------------------------------------|
A|-22-32--22-322--2-32--22-32------------|
E|---4------4------4------4---3~-5~------|

"You ever met me.."
5.
G|---------------------------------------|
D|---------------------------------------|
A|-22-32--22-322--2-32--22-32------------|
E|---4------4------4------4---3x--35x--5-|

Chorus
"I would have died for you.."
6.
G|---------------------------------------------------------|
D|---------------------------------------------------------|
A|-2222222222----------------------------------------------|
E|-----------2222222222-333x-333x-333x-333x-555x-555x-55555|

"As I thirst for vengeance..."
7.
G|-----4442------------------------------------------|
D|---------42----------------------------------------|
A|-2222----------------------------------------------|
E|-----------2222222222-333x-333x-333x-333x-555x-555x|

"Turn and walk away.."
8.
G|--------------|
D|--------------|
A|--------------|
E|-5555-3~---5~-|

"As you watched me break.."
9.
G|---------------------------------------|
D|---------------------------------------|
A|-22-32--22-322--2-32--22-32------------|
E|---4------4------4------4---3x--35x--5-|

Chorus
"I Would have died for you.."
10.
G|---------------------------------------------------------|
D|---------------------------------------------------------|
A|-2222222222----------------------------------------------|
E|-----------2222222222-333x-333x-333x-333x-555x-555x-55555|

"As I thirst for vengeance.."
11.
G|-----4442------------------------------------------------|
D|---------42----------------------------------------------|
A|-2222----------------------------------------------------|
E|-----------2222222222-333x-333x-333x-333x-555x-555x-55555|

"Turn and walk away.." 1:41 
12.
G|----------------------------------|
D|----------------------------------|
A|----------------------------------|
E|-3x-333x-33-5x-55-2x-22-22-2------|

"My revenge is made so clear.."
13.
G|------------------------------------------------|
D|------------------------------------------------|
A|-2x-222x-22-2x-222x-22--------------------------|
E|-----------------------3x-333x-33-5x-55-2x-22---|

"I will hunt you down.."
14.
G|------------------------------------------------|
D|------------------------------------------------|
A|-2x-222x-22-2x-222x-22--------------------------|
E|-----------------------3x-333x-33-5x-55-2x-22---|

"Remembering times.."  *Play really softly..
15.
G|---------------------------------4~-------------|
D|-----------------------------5~------5~---------|
A|-5~------2~--------------5~---------------------|
E|-----3~------3~-3-3-3-3-----------------3-3-3-3-|

"Why would you leave me to die..Turn..And walk away.."
16.
G|----------|
D|----------|
A|----------|
E|-3~--3~---|

"You're dead to mee"
17.
G|-----------------------|
D|-----------------------|
A|-----------------------|
E|-3x--35x--5-3x--35x--5-|

Chorus
"I would have died for you.."
18.
G|---------------------------------------------------------|
D|---------------------------------------------------------|
A|-2222222222----------------------------------------------|
E|-----------2222222222-333x-333x-333x-333x-555x-555x-55555|

"As I thirst for vengeance.."
19.
G|-----4442------------------------------------------------|
D|---------42----------------------------------------------|
A|-2222----------------------------------------------------|
E|-----------2222222222-333x-333x-333x-333x-555x-555x-55555|

That's it
Great song
Luck with it !!

RaiLeff- Underground_Dora@hotmail.com

            
            
Suggest correction
Creating personal tab
Creating personal tab
You can edit any tab online and save it as your Personal.

You can edit, replace or remove any tab part or add personal notes – all changes will be seen only by you.

Personal tabs can be accessed anytime from any device, even offline.
Learn more »
Give kudos to tab author, rate the tab!
1 2 3 4 5
comments
print report bad tab
guest
You may want to rate the tab now too:
select rating
Wanna post a correction for this tab? Suggest correction