Oops, an error
Loading. Please wait.

Endings Without Stories bass

version 1
version 1

Whole song

Interactive

by Alesana
1,060 views 1 this week
no commentswrite comment
1 2 3 4 5
2 more votes to show rating
add to favorites
×
Save as Personal and add changes to this tab that will be seen only by you. Learn more ›
×
You can save this tab as Personal to edit and correct it or add notes. All changes will be seen only by you. Learn more »
launch autoscroll
font size
0
reset
guitar tuner
edit
Autoscroll
slow
fast
+/-
esc
set tempo
stop
Author
++++++++++++++++++++++++++++++++++++
| Alesana- Endings Without Stories |
++++++++++++++++++++++++++++++++++++

EADG

Intro
"This time I die"
1.
G|---------------|
D|---------------|
A|---------------|
E|-3x---3333x-3~-|

Verse
"Our love ruined by your malignance" x2
2.
G|-----------------------------|
D|-----------------------------|
A|-----------------------------|
E|-333333-555555-666666-888888-|

Pre-Chorus
3.
G|---------------------------------|
D|---------------------------------|
A|-55555555-55555555-55555555------|
E|----------------------------55-5-|

Chorus
"I watched the smile fading from your face.."
4.
G|---------------------------------|
D|---------------------------------|
A|-22222222-2222222-2222222-222222-|
E|---------------------------------|

"You bled till there was nothing in your veins.."
5.
G|---------------------------------|
D|---------------------------------|
A|---------------------------------|
E|-33333333-3333333-3333333-333333-|

"Blood stains my hands.."
6.
G|---------------------------------|
D|---------------------------------|
A|-55555555-5555555-5555555-555555-|
E|---------------------------------|

"I won't forget you..."
7.
G|--------------------------|
D|--------------------------|
A|-44444444-4444444-4444444-|
E|--------------------------|

"So dry your eyes.."
8.
G|--------------------------------|
D|--------------------------------|
A|-------22222222-2222222-2222222-|
E|-3-555--------------------------|

"Be afraid to die.."
9.
G|---------------------------------------|
D|---------------------------------------|
A|-2-------------------------------------|
E|---555-33333333-3333333-3333333-333333-|

"Blood stains my hands.."
10.
G|----------------------------------|
D|----------------------------------|
A|-55555555-5555555-5555555-5555555-|
E|----------------------------------|

"I won't forget you..! "
11.
G|-----------------|
D|-----------------|
A|-4-4-4-4-4-4-4-4-|
E|-----------------|

Outro.
12.
G|---------------|
D|---------------|
A|---------------|
E|-3x---3333x-3~-|

Verse
13.
G|-----------------------------|
D|-----------------------------|
A|-----------------------------|
E|-333333-555555-666666-888888-|

14.
G|----------------------------------|
D|----------------------------------|
A|----------------------------------|
E|-333333-555555-666666-8-6-5-6-5-3-|

15.
G|---------------------------------------------|
D|---------------------------------------------|
A|---------------------------------------------|
E|-222222-333333-022-022-022-022-222222-333-5x-|

Instrumental
16.
G|------------------------------|
D|------------------------------|
A|-222222---------------555-444-|
E|--------222222-333333---------|

17.
G|-------------------------|
D|-------------------------|
A|-222222---------------5x-|
E|--------222222-333333----|

18.
G|------------------------------|
D|------------------------------|
A|-222222---------------555-444-|
E|--------222222-333333---------|

19.
G|----------------------|
D|----------------------|
A|-222222---------------|
E|--------222222-333333-|

Chorus
"I watched the smile fading from your face.."
20.
G|---------------------------------|
D|---------------------------------|
A|-22222222-2222222-2222222-222222-|
E|---------------------------------|

"You bled till there was nothing in your veins.."
21.
G|---------------------------------|
D|---------------------------------|
A|---------------------------------|
E|-33333333-3333333-3333333-333333-|

"Blood stains my hands.."
22.
G|---------------------------------|
D|---------------------------------|
A|-55555555-5555555-5555555-555555-|
E|---------------------------------|

"I won't forget you..."
23.
G|--------------------------|
D|--------------------------|
A|-44444444-4444444-4444444-|
E|--------------------------|

"So dry your eyes.."
24.
G|--------------------------------|
D|--------------------------------|
A|-------22222222-2222222-2222222-|
E|-3-555--------------------------|

"Be afraid to die.."
25.
G|---------------------------------------|
D|---------------------------------------|
A|-2-------------------------------------|
E|---555-33333333-3333333-3333333-333333-|

"Blood stains my hands.."
26.
G|----------------------------------|
D|----------------------------------|
A|-55555555-5555555-5555555-5555555-|
E|----------------------------------|

"I won't forget you..! "
27.
G|-----------------|
D|-----------------|
A|-4-4-4-4-4-4-4-4-|
E|-----------------|

2:52- 3:05

 A|-2222222222222-|

And in 3:05 :

28.
G|-------------------------------------|
D|-------------------------------------|
A|-22222222-22222222-22222222-22222222-|
E|-------------------------------------|

29.
G|-------------------------------------|
D|-------------------------------------|
A|-------------------------------------|
E|-33333333-33333333-33333333-33333333-|

30.
G|-------------------------------------|
D|-------------------------------------|
A|-55555555-55555555-55555555-55555555-|
E|-------------------------------------|

31.
G|----------------------------------------|
D|----------------------------------------|
A|-44444444-44444444-44444444-44444444-2~-|
E|----------------------------------------|

And ends with:

32.
G|----------|
D|----------|
A|-2-2-2-2x-|
E|----------|

;D
Done
Please rate
^^

+++++++++++++++++++++

Lyrics:

This time I die

Our love ruined by your malignance
Broken shards of feelings are now just tainted memories left
Beautiful dreams that I cherished now are so disgusting as I strangle the light from you

I watched the smile fading from your face
You bled till there was nothing in your veins
Blood stains my hands so I won't forget you
Its all over now so dry your eyes
There is no forgiveness, be afraid to die
Blood stains my hands so I won't forget you

Tears fall as your screams of anguish rage throughout the heavens
Amidst the penance you must pay
Caress this bullet as eyes close to the painful memories you left
Consume the rest of me
My vision of you has now turned to dust, your porcelain smile gone

I watched the smile fading from your face
You bled till there was nothing in your veins
Blood stains my hands so I won't forget you
Its all over now so dry your eyes... there is no forgiveness, be afraid to die
Blood stains my hands so I won't forget you

You let me go
You let me go too soon
I love you are meaningless words that slip away as I slit your throat
And I will slit your throat 

++++++++++++++++++++++

+++++++++++++++++++++++++++++++++
| RaiLeff                       |
| Underground__Dora@hotmail.com | 
+++++++++++++++++++++++++++++++++

            
            
Suggest correction
Creating personal tab
Creating personal tab
You can edit any tab online and save it as your Personal.

You can edit, replace or remove any tab part or add personal notes – all changes will be seen only by you.

Personal tabs can be accessed anytime from any device, even offline.
Learn more »
Give kudos to tab author, rate the tab!
1 2 3 4 5
comments
print report bad tab
guest
You may want to rate the tab now too:
select rating
Wanna post a correction for this tab? Suggest correction