Oops, an error
Loading. Please wait.

Endings Without Stories tab

version 2
version 2

Whole song

Interactive

by Alesana
2,611 views 1 this week
1 commentread comment
1 2 3 4 5
2 more votes to show rating
add to favorites
×
Save as Personal and add changes to this tab that will be seen only by you. Learn more ›
×
You can save this tab as Personal to edit and correct it or add notes. All changes will be seen only by you. Learn more »
launch autoscroll
font size
0
reset
how to read this tab
guitar tuner
edit
Autoscroll
slow
fast
+/-
esc
set tempo
stop
alesana - endings without stories


intro:


e|--------------------------------------5--5--5--5-|
b|--7--7--7--7--6--6--6--6--5--5--5--5-------------|
g|-4--4--4--4--4--4--4--4--4--4--4--4--4--4--4--4--|    2x
d|-------------------------------------------------|
a|-------------------------------------------------|
d|-------------------------------------------------|


this time I die


e|--------------------------------|
b|--------------------------------|
g|--------------------------------|   2x
d|-5p--7p--5p--8p--7p--5p--5p--7p-|
a|--------------------------------|
d|--------------------------------|


verse:


gtr. 1:


e|---------------------------------|
b|---------------------------------|
g|---------------------------------|
d|-55555--77777--88888--1010101010-|
a|-55555--77777--88888--1010101010-|
d|-55555--77777--88888--1010101010-|

   .....  .....  .....  ..........

gtr. 2:


e|--------------------------------|
b|--------------------------------|
g|--------------------------------|    4x 
d|-5p--7p--5p--8p--7p--5p--5p--7p-|
a|--------------------------------|
d|--------------------------------|



our love ruined by your malignance
broken shards of feelings are now just tainted memories left


gtr. 2:


e|--------------------------------------|
b|--------------------------------------|
g|--------------------------------------|
d|-555555--777777--888888--101010101010-|
a|-555555--777777--888888--101010101010-|
d|-555555--777777--888888--101010101010-|

   .. ..   .. ..   .. ..   ....  ....


then:


e|----------|
b|----------|
g|----------|
d|-12121212-|
a|-12121212-|
d|-12121212-|


gtr. 2:


e|--------------------------------|
b|--------------------------------|
g|--------------------------------|   
d|-5p--7p--5p--8p--7p--5p--5p--7p-|   4x
a|--------------------------------|
d|--------------------------------|


beautiful dreams that I cherished now 
are so disgusting as I strangle the light from 


chorus:


gtr. 1:


e|--------------------------------|
b|--------------------------------|
g|--------------------------------|
d|-999999--555555--000000--444444-|
a|-999999--555555--000000--444444-|
d|-999999--555555--000000--444444-|



gtr. 2:


e|--------------------------------------10-|
b|-10-8-7----10-8-7----10-8-7----10-8-7----|  
g|--------7---------7---------7------------|  
d|-----------------------------------------|
a|-----------------------------------------|
d|-----------------------------------------|


then:


e|---------------------------------|
b|-8-0-8-0-7-0-7-0-5-0-5-0-7-0-7-0-|
g|---------------------------------|
d|---------------------------------|
a|---------------------------------|
d|---------------------------------|


watched the smile fading from your face
you bled till there was nothing in your veins
blood stains my hands so I won't forget you
its all over now so dry your eyes
there is no forgiveness, be afraid to die
blood stains my hands so I won't forget you



after chorus:


e|--------------------------------|
b|--------------------------------|
g|--------------------------------|    4x 
d|-5p--7p--5p--8p--7p--5p--5p--7p-|
a|--------------------------------|
d|--------------------------------|



verse:


gtr. 1:


e|---------------------------------|
b|---------------------------------|
g|---------------------------------|
d|-55555--77777--88888--1010101010-|
a|-55555--77777--88888--1010101010-|
d|-55555--77777--88888--1010101010-|

   .....  .....  .....  ..........


then:


e|-------------------|
b|-------------------|
g|-------------------|
d|-10--8--7--8--7--5-|
a|-10--8--7--8--7--5-|
d|-10--8--7--8--7--5-|



gtr. 2:


e|--------------------------------|
b|--------------------------------|
g|--------------------------------|    4x 
d|-5p--7p--5p--8p--7p--5p--5p--7p-|
a|--------------------------------|
d|--------------------------------|



tears fall as your screams of anguish rage throughout the heavens
amidst the penance you must pay
caress this bullet as eyes close to the painful memories you left
consume the rest of me


after chorus:


e|---------------------|
b|---------------------|
g|---------------------|
d|-2h44-2h44-2h44-2h44-|
a|-2h44-2h44-2h44-2h44-|
d|-2h44-2h44-2h44-2h44-|



* i will not include this part. it's already in version 1 (solo part)



chorus again:


chorus:


gtr. 1:


e|--------------------------------|
b|--------------------------------|
g|--------------------------------|
d|-999999--555555--000000--444444-|
a|-999999--555555--000000--444444-|
d|-999999--555555--000000--444444-|



gtr. 2:


e|--------------------------------------10-|
b|-10-8-7----10-8-7----10-8-7----10-8-7----|  
g|--------7---------7---------7------------|  
d|-----------------------------------------|
a|-----------------------------------------|
d|-----------------------------------------|


then:


e|---------------------------------|
b|-8-0-8-0-7-0-7-0-5-0-5-0-7-0-7-0-|
g|---------------------------------|
d|---------------------------------|
a|---------------------------------|
d|---------------------------------|


I watched the smile fading from your face
you bled till there was nothing in your veins
blood stains my hands so I won't forget you
its all over now so dry your eyes... there is no forgiveness, be afraid to die
blood stains my hands so I won't forget you



after chorus:


e|--------------------------------------5--5--5--5-|
b|--7--7--7--7--6--6--6--6--5--5--5--5-------------|
g|-4--4--4--4--4--4--4--4--4--4--4--4--4--4--4--4--|    
d|-------------------------------------------------|
a|-------------------------------------------------|
d|-------------------------------------------------|



gtr. 2:


e|-----------|
b|-777777777-|
g|-444444444-|
d|-----------|
a|-----------|
d|-----------|


   ......



gtr. 1:


e|--------------------------------|
b|--------------------------------|
g|--------------------------------|
d|-999999--555555--000000--444444-|
a|-999999--555555--000000--444444-|
d|-999999--555555--000000--444444-|


then:


e|---|
b|---|
g|---|
d|-9-|
a|-9-|
d|-9-|


gtr. 2:


e|---------------------------------|
b|-8-0-8-0-8-0-8-0-7-0-7-0-7-0-7-0-|
g|---------------------------------|
d|---------------------------------|
a|---------------------------------|
d|---------------------------------|


you let me go
you let me go too soon
I love you are meaningless words that slip away as I slit your throat
and I will slit your throat 

            
            
Suggest correction
Creating personal tab
Creating personal tab
You can edit any tab online and save it as your Personal.

You can edit, replace or remove any tab part or add personal notes – all changes will be seen only by you.

Personal tabs can be accessed anytime from any device, even offline.
Learn more »
Give kudos to tab author, rate the tab!
1 2 3 4 5
comments
print report bad tab
1 comment total.
0 reply
blake1221 164 Jul 07, 2008 04:01 PM

um sorry but your off in a LOT of places and its a little confusing

guest
You may want to rate the tab now too:
select rating
Wanna post a correction for this tab? Suggest correction