Oops, an error
Loading. Please wait.

Last Three Letters bass

version 1
version 1

Whole song

Interactive

by Alesana
1,028 views 1 this week
1 commentread comment
1 2 3 4 5
2 more votes to show rating
add to favorites
×
Save as Personal and add changes to this tab that will be seen only by you. Learn more ›
×
You can save this tab as Personal to edit and correct it or add notes. All changes will be seen only by you. Learn more »
launch autoscroll
font size
0
reset
guitar tuner
edit
Autoscroll
slow
fast
+/-
esc
set tempo
stop
Tabbed by : freakybass

/ = slide down
x = dead note
~ = let it ring

ALESANA - THE LAST THREE LETTERS  taken from the album 

"On Frail Wings Of Vanity And Wax"
Tuning D A D G

Dearest love I hope.." 
1.
G|-----------------------------------------------|
D|-----------------------------------------------|2x
A|-1111111x-3333333x-----------------------------|
D|-------------------00000x-00000x-00000x-00000x-|

"Every single word secretly.." x2 
2.
|--------------------------------------------------|
|--------------------------------------------------|
|-111111111111/333333333333/5555555555555555555555-|
|--------------------------------------------------|
-
"Eyes forfeit sight to.."
3.
|-------------------------------------------------|
|-------------------------------------------------|
|-5555-3333-5555-3-1-0-5555-3333-00-11-22-33-22-00|
|-------------------------------------------------|

4.
|-------------------------------------------------|
|-------------------------------------------------|
|-5555-3333-5555-3-1-0-5555-3333-5555-3x----------|
|-------------------------------------------------|

Chorus
"Where the last words.." 
5.
|-------------------------------------------------------|
|-------------------------------------------------------|2x
|-1111111111111111/333333333333333---------5~--------5-3|
|----------------------------------00x-00x---00x-00x----|

"It's me agaiin..." *Really soft
6.
|-------------------------------------|
|-------------------------------------| 
|-1111111111111111-3333333333333333---|
|-------------------------------------|

"Is it me, or am I wrong.."
7.
|---------------------------------------|
|-------------------------------7-5-----|
|-55--55-5-55--1-3--55--55-5-55---------|
|---------------------------------------|

"To be concerned.. With the beauty of your pen.."
8.
|-------------------------------------|
|-------------------------------------|
|-1111111111111111-3333333333333333---|
|-------------------------------------|

"Ever cross my eyes again.."
9.
|---------------------------------------|
|-------------------------------7-5-----|
|-55--55-5-55--1-3--55--55-5-55---------|
|---------------------------------------|

"Was this all a lie.." * Soft!
10.
|-------------------|
|-------------------|
|--1~---3~---5~-----|
|-------------------|

"WHYYY"
11.
|----------------------|
|-3333-2222-0000-------|
|----------------3x----|
|----------------------|

Chorus
"Were the last words..." x2
12.
|-------------------------------------------------------|
|-------------------------------------------------------|2x
|-1111111111111111/333333333333333--------5~---------5-3|
|----------------------------------00x-00x---00x-00x----|

This is the part were the 2 guys talk about
crazy stuff lol

13.
|------------------------------------------------------------|
|------------------------------------------------------------|
|-------1~-3~----------1~-3~----------1~-3~---------1~-3~----|
|-0~-------------0~-----------000000---------00000-----------|

"If my words even reach you.." 
14.
|---------------------------|
|---------------------------|4x
|--------------11-1111x-----|
|-00000-00-000--------------|

15. A small part [i think it's not playing by bass but it sounds good to me=)]
|----------------|
|---3-5-7-3------|
|-5---------5----|
|----------------|
Chorus
"Were the last words.." x2
16.
|-------------------------------------------------------|
|-------------------------------------------------------|2x
|-1111111111111111/333333333333333--------5~---------5-3|
|----------------------------------00x-00x---00x-00x----|

Outro.
17.
|-------------------------------------------------|
|-------------------------------------------------|
|-5555-3333-5555-3-1-0-5555-3333-00-11-22-33-22-00|
|-------------------------------------------------|

Please rate =)

If you have any questions contact me at: dominic.schiemenz@web.de

            
            
Suggest correction
Creating personal tab
Creating personal tab
You can edit any tab online and save it as your Personal.

You can edit, replace or remove any tab part or add personal notes – all changes will be seen only by you.

Personal tabs can be accessed anytime from any device, even offline.
Learn more »
Give kudos to tab author, rate the tab!
1 2 3 4 5
comments
print report bad tab
1 comment total.
0 reply
haydenb23 14 Jan 02, 2016 11:37 AM

I think that cool little part goes 5555-3333-00-11-22-33-11-00

guest
You may want to rate the tab now too:
select rating
Wanna post a correction for this tab? Suggest correction