Oops, an error
Loading. Please wait.

Lullaby Of The Crucified solo tab

version 1
version 1

Solo

Whole song

Interactive

by Alesana
5,264 views 6 this week
1 commentread comment
1 2 3 4 5
x 4
add to favorites
×
Save as Personal and add changes to this tab that will be seen only by you. Learn more ›
×
You can save this tab as Personal to edit and correct it or add notes. All changes will be seen only by you. Learn more »
launch autoscroll
font size
0
reset
how to read this tab
guitar tuner
edit
Autoscroll
slow
fast
+/-
esc
set tempo
stop
Solo: Only guitar 1 and a few of guitar 2

e||---------------------------------------------------||
B||---------------------------------------------------||
G||-------910---------/99-/1010-/1212—109~-10~--------||
D||-10-12-----10h12-----------------------------------||
A||---------------------------------------------------||
D||---------------------------------------------------||

e||-----------------------------------------------||
B||-----------------------------------------------||
G||--(10)-(9)-------------------------------------||
D||----------(12)-(10)----------------------------||
A||-----------------------------------------------||
D||-----------------------------------------------||

e||-------------------------------------------------------------||
B||---18p15-------15-------1517---------------------------------||
G||---------1714-----1714-------1714~---------------------------||
D||-------------------------------------------------------------||
A||-------------------------------------------------------------||
D||-------------------------------------------------------------||

e||----1517181715------------20b----------------------------||
B||--15-----------1818b-201820----201820-20b(x3)------------||
G||---------------------------------------------------------||
D||---------------------------------------------------------||
A||---------------------------------------------------------||
D||---------------------------------------------------------||

(Try to figure out this part, it’s pretty fast)
e||--1817-----------------------------------------------||
B||------18201817181715---15--15------------------------||
G||--------------------17b—17b—17b~---------------------||
D||-----------------------------------------------------||
A||-----------------------------------------------------||
D||-----------------------------------------------------||

(Obviously,I’m not sure about this part but the sound of 2guitars at one time worked for 
me with a Harmonic Effect wich was tunned at “E”
And of course this is really fast pitch
e||--------------------------------------------------||
B||------------------13~-----------------13~-15~-----||
G||------121412--------------121412-------------14~--||
D||--1012------151412----1012------151412------------||
A||--------------------------------------------------||
D||--------------------------------------------------||
(Now this is all distortion, no harmonic, try to figure out listening the solo to avoid 
doing it to fast)
e||--------------------||
B||--------------------||
G||--------------------||(Second guitar, it´s almost not noticeable)
D||--------------------||
A||-(12)-(10)-(8)-(7~)-||
D||--------------------||

Then you can choose with fits you the best, V1 or V2, whichever you think sounds better, 
of course with the harmonic effect in the same tunning “E”

Version 1 of 3:33
e||----------------------------------------------------------------------------||
B||----------------------------------------13~---------------------------------||
G||-------------------------------------------------------14-------------------||
D||-12-151514-1212-151412~-151514-1214-1514-------14151412--15-----------------||
A||-------------------------------------------1215------------12~---10-12------||
D||----------------------------------------- (This part is whithout harmonic)--||



Version 2 of 3:33
e||----------------------------------------------------------------------------||
B||----------------------------------13~---------------------------------------||
G||-14-1413----14-----14-1413----1314----------------14------------------------||
D||--------1215--1514--------1215------------14151412--15----------------------||
A||--------------------------------------1215------------12~---10-12-----------||
D||--------------------------------------(Without Harmonic……………………)------------||

This is 3:42, of course with harmonic Effect

e||--17-----------17---------------17----------17-----------------||
B||----181718-15~---181718-20-18~----181718-15~--181718-20--------||
G||---------------------------------------------------------------||
D||---------------------------------------------------------------||
A||---------------------------------------------------------------||
D||---------------------------------------------------------------||

3:52
e||-18-17~-171817------17------171817------------------------------------||
B||--------------20~-20—2018~--------201820-171817-151715-1213-15~-15\---||
G||----------------------------------------------------------------------||
D||----------------------------------------------------------------------||
A||----------------------------------------------------------------------||
D||----------------------------------------------------------------------||

(There’s a second guitar on 3:52) Palm mute

e||----------------------------------------------------------------||
B||----------------------------------------------------------------||
G||----------------------------------------------------------------||
D||-1212151514141212-121215151414-15h17p15-------------------------||
A||----------------------------------------------------------------||
D||----------------------------------------------------------------||

e||---------------------------------------------------------||
B||---------------------------------------------------------||
G||-------------------------------12h14p12------------------||
D||-1212151514141212-121215151414---------------------------||
A||---------------------------------------------------------||
D||---------------------------------------------------------||

            
            
Suggest correction
Creating personal tab
Creating personal tab
You can edit any tab online and save it as your Personal.

You can edit, replace or remove any tab part or add personal notes – all changes will be seen only by you.

Personal tabs can be accessed anytime from any device, even offline.
Learn more »
comments
print report bad tab
1 comment total.
+2 reply
y0m00m4r 10 Dec 16, 2011 11:42 AM

Great job figuring out the part with all the bends! :p
Here are some corrections:

Instead of
e||--------------------------------------------------||
B||------------------13~-----------------13~-15~-----||
G||------121412--------------121412-------------14~--||
D||--1012------151412----1012------151412------------||
A||--------------------------------------------------||
D||--------------------------------------------------||
.......
I think it should be
e||----------------------------------------------------||
B||--------------------13~-------------------13~-15~---||
G||----------12--------------------12--------------14~-||
D||--12h14h15---15p14------12h14h15---15p14------------||
A||------------------15--------------------15----------||
D||----------------------------------------------------||
.......
.......
And I think 3:33 should be
e||--------------------------------------------------||
B||--------------------------------------------------||
G||--------------------------------------------------||
D||-19-19p17-15x-15h17p15-14~-14h15p14-12~-----------||
A||--------------------------------------------------||
D||--------------------------------------------------||

e||--------------------------------------------------||
B||--------------------------------------------------||
G||--------------------------------------------------||
D||-17-17p15-14x-14h15p14-12~-14h15p14-(15)/17^------||
A||--------------------------------------------------||
D||--------------------------------------------------||

e||--------------------------------------------------||
B||--------------------------------------------------||
G||--------------------------------------------------||
D||-12h14-14h15p14--15p14p12-10x-(10)/12~------------||
A||---------------15---------------------------------||
D||--------------------------------------------------||
.......
.......
And I think 3:52 should be
e||-18-17-15-17-13-15-12-13-15-13-12-13-10~----------||
B||--------------------------------------------------||
G||--------------------------------------------------||
D||--------------------------------------------------||
A||--------------------------------------------------||
D||--------------------------------------------------||

guest
You may want to rate the tab now too:
select rating
Wanna post a correction for this tab? Suggest correction