Oops, an error
Loading. Please wait.

Neros Decay bass

by Alesana
2,158 views 1 this week
no commentswrite comment
1 2 3 4 5
x 5
add to favorites
×
Save as Personal and add changes to this tab that will be seen only by you. Learn more ›
×
You can save this tab as Personal to edit and correct it or add notes. All changes will be seen only by you. Learn more »
launch autoscroll
font size
0
reset
guitar tuner
edit
Autoscroll
slow
fast
+/-
esc
set tempo
stop
Author
+++++++++++++++++++++++++
| Alesana- Nero's Decay |
+++++++++++++++++++++++++

Tuning: EADG

Keys:

| h: Hammer on
| p: Pull Off
| x: Mute
| ~: Ring note
| /: slide up
| \: Slide down

Great song!!!

Intro.
1.
G|----5-5----7-5h7p5-|
D|-333-3--555--------|
A|-------------------|
E|-------------------|

2.
G|-----------------------------------------------------------------------------|
D|-----------------------------------------------------------------------------|
A|-----------------------------------------------------------------------------|
E|-5-555555-55555-55555-5555-4-44444-44444-44444-4444-3-33333-33333-33333-3333-|

3.
G|---------------------------|
D|---------------------------|
A|---------------------------|
E|-1-11111-1111-3-33333-3333-|

4.
G|----------------------------------------------------------------------------|
D|----------------------------------------------------------------------------|
A|----------------------------------------------------------------------------|
E|-5-55555-55555-55555-5555-4-44444-44444-44444-4444-3-33333-33333-3333-3-3-3-|

5.
G|--------------------------------------|
D|-----------------------------4/7~-----|
A|--------------------------------------|
E|-1x-------3x------5~------------------|

Verse.
"Our empire.. has fallen! .." x2
6.
G|----------------------------------------------------------------|
D|----------------------------------------------------------------|
A|----------------------------------------------------------------|
E|-55555x--55555x--11111x--11111x--33333x--33333x--00000x--00000x-|

Chorus
"Tonight it's over.."
7.
G|-------------------------------------------|
D|-------------------------------------------|
A|----------------2~-3~----------------2223x-|
E|-1~---3~---5~---------1~---3~---5~---------|

"My flesh is burning from the embers.." x3
8.
G|---------------------------------|
D|---------------------------------|
A|---------------------------------|
E|-1111111-3333333-0000000-555-333-|

"I hope I never see the end.."
9.
G|------------------------------------------------------------|
D|------------------------------------------------------------|
A|------------------------------------------------------------|
E|-1~-1-1-1~/13~--3~-3-3-3~---1~-1-1-1~/13~--3~-3-3-3~--0~-0~-|

"Wind chokes on the ashes.."
10.
G|---------------------------|
D|---------------------------|
A|---------------------------|
E|-55555x-55555x-0000x-0000x-|

11.
G|--------------------------------------------------|
D|--------------------------------------------------|
A|----333-------------7~-----7x-8x-----7~-----7x-8x-|
E|-111---3333333--00x----00x-------00x----00x-------|

12.
G|---------------------------|
D|---------------------------|
A|---------------------------|
E|-55555x-55555x-0000x-0000x-|

13.
G|-----------------------------------------------|
D|-----------------------------------------------|
A|----333-------------7~-----7x-8x-----7~-----7x-|
E|-111---3333333--00x----00x-------00x----00x----|

Chorus
"Tonight its over.."
14.
G|-------------------------------------------|
D|-------------------------------------------|
A|----------------2~-3~----------------2223x-|
E|-1~---3~---5~---------1~---3~---5~---------|

"My flesh is burning from the embers.."  x3
15.
G|---------------------------------|
D|---------------------------------|
A|---------------------------------|
E|-1111111-3333333-0000000-555-333-|

"I hope I never see the end.."
16.
G|-----------------------------------------------------------------|
D|-----------------------------------------------------------------|
A|-----------------------------------------------------------------|
E|-1~-1-1-1~/13~--3~-3-3-3~---1~-1-1-1~/13~--3~-3-3-3~--0~-0~-3~-5~|

17.
G|-----------------------------------------------------------------------------|
D|-----------------------------------------------------------------------------|
A|-----------------------------------------------------------------------------|
E|-5-555555-55555-55555-5555-4-44444-44444-44444-4444-3-33333-33333-33333-3333-|

18.
G|---------------------------|
D|---------------------------|
A|---------------------------|
E|-1-11111-1111-3-33333-3333-|

19.
G|----------------------------------------------------------------------------|
D|----------------------------------------------------------------------------|
A|----------------------------------------------------------------------------|
E|-5-55555-55555-55555-5555-4-44444-44444-44444-4444-3-33333-33333-3333-3-3-3-|

20.
G|---------------------|
D|---------------------|
A|---------------------|
E|-1x-------3x------5~-|

21.
G|-----------------------------------------------------------------------------|
D|-----------------------------------------------------------------------------|
A|-----------------------------------------------------------------------------|
E|-5-555555-55555-55555-5555-4-44444-44444-44444-4444-3-33333-33333-33333-3333-|

22.
G|---------------------------|
D|---------------------------|
A|---------------------------|
E|-1-11111-1111-3-33333-3333-|

"At long last we will fall.."
23.
G|--------------------------------------|
D|--------------------------------------|
A|--------------------------------------|
E|-5~---5~---5~---5~----5x--------------|

Plz rate ;)
:D

+++++++++++++++++++++++++++++++++
| RaiLeff                       |
| Underground__Dora@hotmail.com |
+++++++++++++++++++++++++++++++++

            
            
Suggest correction
Creating personal tab
Creating personal tab
You can edit any tab online and save it as your Personal.

You can edit, replace or remove any tab part or add personal notes – all changes will be seen only by you.

Personal tabs can be accessed anytime from any device, even offline.
Learn more »
comments
print report bad tab
guest
You may want to rate the tab now too:
select rating
Wanna post a correction for this tab? Suggest correction