Oops, an error
Loading. Please wait.

Obsession Is Such An Ugly Word bass

version 1
version 1

Whole song

Interactive

by Alesana
3,227 views 1 this week
2 commentsread comments
1 2 3 4 5
x 4
add to favorites
×
Save as Personal and add changes to this tab that will be seen only by you. Learn more ›
×
You can save this tab as Personal to edit and correct it or add notes. All changes will be seen only by you. Learn more »
launch autoscroll
font size
0
reset
guitar tuner
edit
Autoscroll
slow
fast
+/-
esc
set tempo
stop
+++++++++++++++++++++++++++++++++++++++++++
| Alesana- Obsession Is Such An Ugly Word |
+++++++++++++++++++++++++++++++++++++++++++

"Welcome Home! I Am Your Prison!!"


Tuning: Drop D (DADG)


Intro
1.
G|-----------------------------------------------------------|
D|-----------------------------------------------------------|
A|-------------------------555x--555x-0x-0x-111x--111x-------|
D|-----------------2/15\2------------------------------5x-5x-|

2.
G|------------------------------------------------------------------------------|
D|------------------------------------------------------------------------------|
A|-55555555-50000000-01111111-1------------55555555-50000000-01111111-1---------|
D|-----------------------------5x-5x-5x-5x-----------------------------5x-5x----|

Verse
"I toss and turn and lie awake..."
3.
G|-----------------------------------------------------------------------------|
D|-----------------------------------------------------------------------------|
A|-11111111-33333333---------------------11111111-33333333---------------------|
D|-------------------000x-000x-000x-000x-------------------000x-000x-000x-000x-|

"As I take a step back I wonder... 
4.
G|---------------------------------------------------------------------------|
D|---------------------------------------------------------------------------|
A|-11111111-33333333-5-0-7-0-7h8p7-0-5-11111111-33333333---------------------|
D|-------------------------------------------------------000x-000x-000x-000x-|

Pre-Chorus
"Look away! Turn away!!"
5.
G|-------------------------------------------------------------------------|
D|-------------------------------------------------------------------------|
A|-11111111/33333333/55555555\00000000-11111111/33333333/55555555\00000000-|
D|-------------------------------------------------------------------------|

"Nothing is what it seems..."
6.
G|-----------------------------------------------------------------------------------|
D|-----------------------------------------------------------------------------------|
A|-11111111/33333333/55555555\00000000-11111111/33333333-5p3-5p3-5p3-5p3-5p3-5p3-5x--|
D|-----------------------------------------------------------------------------------|

Chorus
"When all is said and done I may not be able to move on..."
7.
G|-----------------------------------------------------------------------------|
D|-----------------------------------------------------------------------------|
A|-55555555-55555555-000x-000x-000x-000x-11111111-11111111-333x-333x-333x--33x-|
D|-----------------------------------------------------------------------------|

"Desire is now the one in control..."
8.
G|-----------------------------------------------------------------------------|
D|-----------------------------------------------------------------------------|
A|-------------------000x-000x-000x-000x-11111111-11111111-333x-333x-333x-333x-|
D|-55555555-55555555-----------------------------------------------------------|

Outro
9.
G|-----------------------------------------------------------|
D|-----------------------------------------------------------|
A|-------------------------555x--555x-0x-0x-111x--111x-------|
D|-----------------2/15\2------------------------------5x-5x-|

Verse
"I can almost hear anguished cries as they suffer..."
10.
G|-----------------------------------------------------------------------|
D|-----------------------------------------------------------------------|
A|---------------------------------111-1-1~--------333-3-3~----333x-000x-|
D|-000-0-0~--------000-0-0~----------------------------------------------|

"Welcome to the bodies!!"
11.
G|-----------------------------------------------------------------------------|
D|-----------------------------------------------------------------------------|
A|---------------------------------111-1-1~--------333-3-3~----5~--3~--1~--0~--|
D|-000-0-0~--------000-0-0~----------------------------------------------------|

Pre-Chorus
"Look away! Turn away!!"
12.
G|-------------------------------------------------------------------------|
D|-------------------------------------------------------------------------|
A|-11111111/33333333/55555555\00000000-11111111/33333333/55555555\00000000-|
D|-------------------------------------------------------------------------|

"Nothing is what it seems..."
13.
G|-----------------------------------------------------------------------------------|
D|-----------------------------------------------------------------------------------|
A|-11111111/33333333/55555555\00000000-11111111/33333333-5p3-5p3-5p3-5p3-5p3-5p3-5x--|
D|-----------------------------------------------------------------------------------|

Chorus
"When all is said and done I may not be able to move on..."
14.
G|-----------------------------------------------------------------------------|
D|-----------------------------------------------------------------------------|
A|-55555555-55555555-000x-000x-000x-000x-11111111-11111111-333x-333x-333x--33x-|
D|-----------------------------------------------------------------------------|

"Desire is now the one in control..."
15.
G|---------------------------------------33333333-33333333---------------------|
D|-----------------------------------------------------------------------------|
A|-------------------000x-000x-000x-000x-------------------333x-333x-333x-333x-|
D|-55555555-55555555-----------------------------------------------------------|

Outro
"What sinful trance awaits me as the key turns?"
16.
G|-----------------------------------------------------------------------------------------|
D|-----------------------------------------------------------------------------------------|
A|-----------------------------------------------------------------------------------------|
D|-0-0-0000x--0-0-0000x--0-0-0000x--0-0-0000x--0-0-0000x--0-0-0000x--0-0-0000x--0-0-0000x--|

17.
G|-------------------|
D|-------------------|
A|-------------------|
D|-1~----------------|

Bridge
18.
G|-------7---6----|
D|-----8---7------|
A|----------------|
D|----------------|

"Now it is done!!!"
19.
G|-------------------------------------------------------------------------------|
D|-------------------------------------------------------------------------------|
A|----------------------------------------------------------------------1~-------|--x1000
D|-00~--0000~--0000~----00~--0000~--0000~----00~--0000~-00-1~--1~----5~----3~-0~-|

Play that each time slower like a thousand times until the song ends...



Lyrics: 


I toss and turn and lie awake...it torments me, I must know why
It just seems too easy...what is beyond that door?
As I take a step back I wonder could I go on and turn the key?

Look away! Turn away!
I should remember nothing is what it seems
For once in my life I will resist...temptation has
Come alive again!

When all is said and done I may not be able to move on
If I don't know what lies beyond
Desire is now the one in control
Am I strong enough to not ever know just what I'd find?
Should I press on?

I can almost hear anguished cries as they suffer
Welcome to the bodies!
I should run...
I should run but I just can't see to move

What sinful trance awaits me as the key turns?

Now it is done...the key has been turned
All that is left is my embrace
Her trembling is driving me wild!
Her shrieks are so intoxicating!
Eyes filled with tears will strain to see
Welcome home! I am your prison!


+++++++++++++++++++++++++++++++++
| RaiLeff                       |
| Underground__Dora@Hotmail.Com |
+++++++++++++++++++++++++++++++++

            
            
Suggest correction
Creating personal tab
Creating personal tab
You can edit any tab online and save it as your Personal.

You can edit, replace or remove any tab part or add personal notes – all changes will be seen only by you.

Personal tabs can be accessed anytime from any device, even offline.
Learn more »
comments
print report bad tab
2 comments total.
0 reply
bonjidonk 142 Nov 25, 2008 06:22 PM

near perfect. the only thing i noticed is that on the very last part it should be a 2 instead of a 3

0 reply
RaiLeff 12,922 Nov 27, 2008 12:09 PM

Thanks for checking it out
But actually it was really hard to tell
I couldnt decide myself
thanks for rating!!
cheers

..::RaiLeff::.. [!]

guest
You may want to rate the tab now too:
select rating
Wanna post a correction for this tab? Suggest correction