Oops, an error
Loading. Please wait.

Obsession Is Such An Ugly Word tab

version 2
version 2

Whole song

Interactive

by Alesana
632 views 1 this week
no commentswrite comment
1 2 3 4 5
3 more votes to show rating
add to favorites
×
Save as Personal and add changes to this tab that will be seen only by you. Learn more ›
×
You can save this tab as Personal to edit and correct it or add notes. All changes will be seen only by you. Learn more »
launch autoscroll
font size
0
reset
how to read this tab
guitar tuner
edit
Autoscroll
slow
fast
+/-
esc
set tempo
stop
Will Have A Guitar Pro Version Of This As Soon As I Can Figure Out The Rest Of The 
Leads And The Drums And Stuff......enjoy ;D

Tuning-Drop D
e-1  b-2
g-3  d-4
a-5  d-6


     E  E  E  Q.     E  E   
E||------------------x--x--|
B||------------------x--x--|
G||--7--7--7---------x--x--|
D||--7--7--7---------x--x--|
A||--5--5--5---------x--x--|
D||------------------x--x--|


  E  E  E  E  E  E  E  E   
--------------------------|
--------------------------|
--7--7--7-----------------|
--7--7--7-----7-----7-----|
--5--5--5-----7-----7-----|
--------------7-----7-----|


  E  E  E  Q.     E  E   
------------------x--x--|
------------------x--x--|
------------------x--x--|
--8--8--8---------x--x--|
--8--8--8---------x--x--|
--8--8--8---------x--x--|


  E  E  E  E  E  E  E  E   
--------------------------|
--------------------------|
--------------------------|
--8--8--8-----5-----5-----|
--8--8--8-----5-----5-----|
--8--8--8-----5-----5-----|


  E  E  E  Q.     E  E   
------------------x--x--|
------------------x--x--|
--7--7--7---------x--x--|
--7--7--7---------x--x--|
--5--5--5---------x--x--|
------------------x--x--|


  E  E  E  E  E  E  E  E   
--------------------------|
--------------------------|
--7--7--7-----------------|
--7--7--7-----7-----7-----|
--5--5--5-----7-----7-----|
--------------7-----7-----|


  E  E  E  Q.     E  E   
------------------x--x--|
------------------x--x--|
------------------x--x--|
--8--8--8---------x--x--|
--8--8--8---------x--x--|
--8--8--8---------x--x--|


  E  E  E  E  E  E  E  E   
--------------------------|
--------------------------|
--------------------------|
--8--8--8-----5-----5-----|
--8--8--8-----5-----5-----|
--8--8--8-----5-----5-----|


  E  E  E  E  E  E  E  E   
--------------------------|
--------------------------|
--7--7--7--7--7--7--7--7--|
--7--7--7--7--7--7--7--7--|
--5--5--5--5--5--5--5--5--|
--------------------------|


  E  E  E  E  E  E  E  E   
--------------------------|
--------------------------|
--------------------------|
--7--7--7--7--7--7--7--7--|
--7--7--7--7--7--7--7--7--|
--7--7--7--7--7--7--7--7--|


  E  E  E  E  E  E  E  E   
--------------------------|
--------------------------|
--------------------------|
--8--8--8--8--8--8--8--8--|
--8--8--8--8--8--8--8--8--|
--8--8--8--8--8--8--8--8--|


  E  E  E  E  E  E  E  E   
--------------------------|
--------------------------|
--------------------------|
--8--5-----5-----5-----5--|
--8--5-----5-----5-----5--|
--8--5-----5-----5-----5--|


  E  E  E  E  E  E  E  E   
--------------------------|
--------------------------|
--7--7--7--7--7--7--7--7--|
--7--7--7--7--7--7--7--7--|
--5--5--5--5--5--5--5--5--|
--------------------------|


  E  E  E  E  E  E  E  E   
--------------------------|
--------------------------|
--------------------------|
--7--7--7--7--7--7--7--7--|
--7--7--7--7--7--7--7--7--|
--7--7--7--7--7--7--7--7--|


  E  E  E  E  E  E  E  E   
--------------------------|
--------------------------|
--------------------------|
--8--8--8--8--8--8--8--8--|
--8--8--8--8--8--8--8--8--|
--8--8--8--8--8--8--8--8--|


  E  E  E  E  H         
-----------------------|
-----------------------|
-----------------------|
--8--5-----5-----------|
--8--5-----5-----------|
--8--5-----5-----------|


  E  E  E  E  E  E  E  E   
--------------------------|
--------------------------|
--------------------------|
--8--8--8--8--8--8--8--8--|
--8--8--8--8--8--8--8--8--|
--8--8--8--8--8--8--8--8--|


   E   E   E   E   E   E   E   E   
----------------------------------|
----------------------------------|
----------------------------------|
--10--10--10--10--10--10--10--10--|
--10--10--10--10--10--10--10--10--|
--10--10--10--10--10--10--10--10--|


  E  E  E  E  E  E  E  E   
--------------------------|
--------------------------|
--------------------------|
--0--0--0--0--0--0--0--0--|
--0--0--0--0--0--0--0--0--|
--0--0--0--0--0--0--0--0--|


  E  E  E  E  E  E  E  E   
--------------------------|
--------------------------|
--------------------------|
--0--0--0--0--0--0--0--0--|
--0--0--0--0--0--0--0--0--|
--0--0--0--0--0--0--0--0--|


  E  E  E  E  E  E  E  E   
--------------------------|
--------------------------|
--------------------------|
--8--8--8--8--8--8--8--8--|
--8--8--8--8--8--8--8--8--|
--8--8--8--8--8--8--8--8--|


   E   E   E   E   E   E   E   E   
----------------------------------|
----------------------------------|
----------------------------------|
--10--10--10--10--10--10--10--10--|
--10--10--10--10--10--10--10--10--|
--10--10--10--10--10--10--10--10--|


  E  E  E  E  E  E  E  E   
--------------------------|
--------------------------|
--------------------------|
--0--0--0--0--0--0--0--0--|
--0--0--0--0--0--0--0--0--|
--0--0--0--0--0--0--0--0--|


  E  E  E  E  E  E  E  E   
--------------------------|
--------------------------|
--------------------------|
--0--0--0--0--0--0--0--0--|
--0--0--0--0--0--0--0--0--|
--0--0--0--0--0--0--0--0--|


  E  E  E  E  E  E  E  E   
--------------------------|
--------------------------|
--------------------------|
--8--8--8--8--8--8--8--8--|
--8--8--8--8--8--8--8--8--|
--8--8--8--8--8--8--8--8--|


   E   E   E   E   E   E   E   E   
----------------------------------|
----------------------------------|
----------------------------------|
--10--10--10--10--10--10--10--10--|
--10--10--10--10--10--10--10--10--|
--10--10--10--10--10--10--10--10--|


  E  E  E  E  E  E  E  E   
--------------------------|
--------------------------|
--------------------------|
--0-----0-----0-----0-----|
--0-----0-----0-----0-----|
--0-----0-----0-----0-----|


  E  E  E  E  E  E  E  E   
--------------------------|
--------------------------|
--------------------------|
--0-----0-----0-----0-----|
--0-----0-----0-----0-----|
--0-----0-----0-----0-----|


  E  E  E  E  E  E  E  E   
--------------------------|
--------------------------|
--------------------------|
--8--8--8--8--8--8--8--8--|
--8--8--8--8--8--8--8--8--|
--8--8--8--8--8--8--8--8--|


   E   E   E   E   E   E   E   E   
----------------------------------|
----------------------------------|
----------------------------------|
--10--10--10--10--10--10--10--10--|
--10--10--10--10--10--10--10--10--|
--10--10--10--10--10--10--10--10--|


  E  E  E  E  E  E  E  E   
--------------------------|
--------------------------|
--------------------------|
--0--0--0--0--0--0--0--0--|
--0--0--0--0--0--0--0--0--|
--0--0--0--0--0--0--0--0--|


  E  E  E  E  E  E  E  E   
--------------------------|
--------------------------|
--------------------------|
--0--0--0--0--0--0--0--0--|
--0--0--0--0--0--0--0--0--|
--0--0--0--0--0--0--0--0--|


  W                   W                 
-------------------|-------------------|
-------------------|-------------------|
-------------------|-------------------|
--0----------------|--L----------------|
--0----------------|--L----------------|
--0----------------|--L----------------|


  W                   W                 
-------------------|-------------------|
-------------------|-------------------|
-------------------|-------------------|
--L----------------|--L----------------|
--L----------------|--L----------------|
--L----------------|--L----------------|


                          W                 
-----|-----|-----|-----|-------------------|
-----|-----|-----|-----|-------------------|
-----|-----|-----|-----|-------------------|
-----|-----|-----|-----|--8----------------|
-----|-----|-----|-----|--8----------------|
-----|-----|-----|-----|--8----------------|


   W                   W                 
--------------------|-------------------|
--------------------|-------------------|
--------------------|-------------------|
--10----------------|--0----------------|
--10----------------|--0----------------|
--10----------------|--0----------------|


  W                   W                 
-------------------|-------------------|
-------------------|-------------------|
-------------------|-------------------|
--7----------------|--8----------------|
--7----------------|--8----------------|
--7----------------|--8----------------|


   W                 
--------------------|
--------------------|
--------------------|
--10----------------|
--10----------------|
--10----------------|


  E  E  E  E  E  E  E  E   
--------------------------|
--------------------------|
--------------------------|
--0--0--0--0--0--0--0--0--|
--0--0--0--0--0--0--0--0--|
--0--0--0--0--0--0--0--0--|


  E  E  E  E  Q    Q     
-------------------x----|
-------------------x----|
-------------------x----|
--0--0--0--0--0----x----|
--0--0--0--0--0----x----|
--0--0--0--0--0----x----|


    E  E  E  E  E  E  E  E   
|---------------------------|
|---------------------------|
|*--7--7--7--7--7--7--7--7--|
|*--7--7--7--7--7--7--7--7--|
|---5--5--5--5--5--5--5--5--|
|---------------------------|


  E  E  E  E  E  E  E  E   
--------------------------|
--------------------------|
--7--7--7--7--7--7--7--7--|
--7--7--7--7--7--7--7--7--|
--5--5--5--5--5--5--5--5--|
--------------------------|


  E  E  E  E  E  E  E  E   
--------------------------|
--------------------------|
--------------------------|
--7--7--7-----x--x--7-----|
--7--7--7-----x--x--7-----|
--7--7--7-----x--x--7-----|


  E  E  E  E  E  E  E  E   
--------------------------|
--------------------------|
--------------------------|
--x--x--7-----x--x--7-----|
--x--x--7-----x--x--7-----|
--x--x--7-----x--x--7-----|


  E  E  E  E  E  E  E  E   
--------------------------|
--------------------------|
--------------------------|
--8--8--8--8--8--8--8--8--|
--8--8--8--8--8--8--8--8--|
--8--8--8--8--8--8--8--8--|


  E  E  E  E  E  E  E  E   
--------------------------|
--------------------------|
--------------------------|
--8--8--8--8--8--8--8--8--|
--8--8--8--8--8--8--8--8--|
--8--8--8--8--8--8--8--8--|


   E   E   E  E  E  E   E  E   
------------------------------|
------------------------------|
------------------------------|
--10--10--10-----x--x--10-----|
--10--10--10-----x--x--10-----|
--10--10--10-----x--x--10-----|


  E  E   E  E  E  E   E  E                 
-----------------------------||-----|-----|
-----------------------------||-----|-----|
----------------------------*||-----|-----|
--x--x--10-----x--x--10-----*||-----|-----|
--x--x--10-----x--x--10------||-----|-----|
--x--x--10-----x--x--10------||-----|-----|


              E  E  E  Q.     E  E   
-----|-----|------------------x--x--|
-----|-----|------------------x--x--|
-----|-----|--7--7--7---------x--x--|
-----|-----|--7--7--7---------x--x--|
-----|-----|--5--5--5---------x--x--|
-----|-----|------------------x--x--|


  E  E  E  E  E  E  E  E   
--------------------------|
--------------------------|
--7--7--7-----------------|
--7--7--7-----7-----7-----|
--5--5--5-----7-----7-----|
--------------7-----7-----|


  E  E  E  Q.     E  E   
------------------x--x--|
------------------x--x--|
------------------x--x--|
--8--8--8---------x--x--|
--8--8--8---------x--x--|
--8--8--8---------x--x--|


  E  E  E  E  E  E  E  E   
--------------------------|
--------------------------|
--------------------------|
--8--8--8-----5-----5-----|
--8--8--8-----5-----5-----|
--8--8--8-----5-----5-----|


  E  E  Q    Q    Q       W                 
-----------------------|-------------------|
-----------------------|-------------------|
-----------------------|-------------------|
--0--0--0----0----0----|--L----------------|
--0--0--0----0----0----|--L----------------|
--0--0--0----0----0----|--L----------------|


  E  E  Q    Q    Q       W                 
-----------------------|-------------------|
-----------------------|-------------------|
-----------------------|-------------------|
--0--0--0----0----0----|--L----------------|
--0--0--0----0----0----|--L----------------|
--0--0--0----0----0----|--L----------------|


  E  E  Q    Q    Q       W                 
-----------------------|-------------------|
-----------------------|-------------------|
-----------------------|-------------------|
--8--8--8----8----8----|--L----------------|
--8--8--8----8----8----|--L----------------|
--8--8--8----8----8----|--L----------------|


   E   E   Q     Q     Q     
----------------------------|
----------------------------|
----------------------------|
--10--10--10----10----10----|
--10--10--10----10----10----|
--10--10--10----10----10----|


  E  E  H.            
---------------------|
---------------------|
---------------------|
--L------------------|
--L------------------|
--L------------------|


  E  E  Q    Q    Q       W                 
-----------------------|-------------------|
-----------------------|-------------------|
-----------------------|-------------------|
--0--0--0----0----0----|--L----------------|
--0--0--0----0----0----|--L----------------|
--0--0--0----0----0----|--L----------------|


  E  E  Q    Q    Q       W                 
-----------------------|-------------------|
-----------------------|-------------------|
-----------------------|-------------------|
--0--0--0----0----0----|--L----------------|
--0--0--0----0----0----|--L----------------|
--0--0--0----0----0----|--L----------------|


  E  E  Q    Q    Q       W                 
-----------------------|-------------------|
-----------------------|-------------------|
-----------------------|-------------------|
--8--8--8----8----8----|--L----------------|
--8--8--8----8----8----|--L----------------|
--8--8--8----8----8----|--L----------------|


   E   E   Q    Q     Q     
---------------------------|
---------------------------|
---------------------------|
--10--10--10----8----10----|
--10--10--10----8----10----|
--10--10--10----8----10----|


   H         H           H        H         
----------------------|--------------------|
----------------------|--------------------|
----------------------|--------------------|
--12--------10--------|--8--------7--------|
--12--------10--------|--8--------7--------|
--12--------10--------|--8--------7--------|


  W                   W                 
-------------------|-------------------|
-------------------|-------------------|
-------------------|-------------------|
--0----------------|--L----------------|
--0----------------|--L----------------|
--0----------------|--L----------------|


  W                   W                 
-------------------|-------------------|
-------------------|-------------------|
-------------------|-------------------|
--L----------------|--L----------------|
--L----------------|--L----------------|
--L----------------|--L----------------|


                          W                 
-----|-----|-----|-----|-------------------|
-----|-----|-----|-----|-------------------|
-----|-----|-----|-----|-------------------|
-----|-----|-----|-----|--8----------------|
-----|-----|-----|-----|--8----------------|
-----|-----|-----|-----|--8----------------|


   W                   W                 
--------------------|-------------------|
--------------------|-------------------|
--------------------|-------------------|
--10----------------|--0----------------|
--10----------------|--0----------------|
--10----------------|--0----------------|


  W                   W                 
-------------------|-------------------|
-------------------|-------------------|
-------------------|-------------------|
--7----------------|--8----------------|
--7----------------|--8----------------|
--7----------------|--8----------------|


   W                 
--------------------|
--------------------|
--------------------|
--10----------------|
--10----------------|
--10----------------|


  E  E  E  E  E  E  E  E   
--------------------------|
--------------------------|
--------------------------|
--0--0--0--0--0--0--0--0--|
--0--0--0--0--0--0--0--0--|
--0--0--0--0--0--0--0--0--|


  E  E  E  E  Q    Q     
-------------------x----|
-------------------x----|
-------------------x----|
--0--0--0--0--0----x----|
--0--0--0--0--0----x----|
--0--0--0--0--0----x----|


    E  E  E  E  E  E  E  E   
|---------------------------|
|---------------------------|
|*--7--7--7--7--7--7--7--7--|
|*--7--7--7--7--7--7--7--7--|
|---5--5--5--5--5--5--5--5--|
|---------------------------|


  E  E  E  E  E  E  E  E   
--------------------------|
--------------------------|
--7--7--7--7--7--7--7--7--|
--7--7--7--7--7--7--7--7--|
--5--5--5--5--5--5--5--5--|
--------------------------|


  E  E  E  E  E  E  E  E   
--------------------------|
--------------------------|
--------------------------|
--7--7--7-----x--x--7-----|
--7--7--7-----x--x--7-----|
--7--7--7-----x--x--7-----|


  E  E  E  E  E  E  E  E   
--------------------------|
--------------------------|
--------------------------|
--x--x--7-----x--x--7-----|
--x--x--7-----x--x--7-----|
--x--x--7-----x--x--7-----|


  E  E  E  E  E  E  E  E   
--------------------------|
--------------------------|
--------------------------|
--8--8--8--8--8--8--8--8--|
--8--8--8--8--8--8--8--8--|
--8--8--8--8--8--8--8--8--|


  E  E  E  E  E  E  E  E   
--------------------------|
--------------------------|
--------------------------|
--8--8--8--8--8--8--8--8--|
--8--8--8--8--8--8--8--8--|
--8--8--8--8--8--8--8--8--|


   E   E   E  E  E  E   E  E   
------------------------------|
------------------------------|
------------------------------|
--10--10--10-----x--x--10-----|
--10--10--10-----x--x--10-----|
--10--10--10-----x--x--10-----|


  E  E   E  E  E  E   E  E     
-----------------------------||
-----------------------------||
----------------------------*||
--x--x--10-----x--x--10-----*||
--x--x--10-----x--x--10------||
--x--x--10-----x--x--10------||


  PM    PM    PM PM PM PM PM     
  E  E  E  E  S  S  S  S  E  E   
--------------------------------|
--------------------------------|
--------------------------------|
--0-----0-----0--0--0--0--0-----|
--0-----0-----0--0--0--0--0-----|
--0-----0-----0--0--0--0--0-----|


  PM    PM    PM PM PM PM PM     
  E  E  E  E  S  S  S  S  E  E   
--------------------------------|
--------------------------------|
--------------------------------|
--0-----0-----0--0--0--0--0-----|
--0-----0-----0--0--0--0--0-----|
--0-----0-----0--0--0--0--0-----|


  PM    PM    PM PM PM PM PM     
  E  E  E  E  S  S  S  S  E  E   
--------------------------------|
--------------------------------|
--------------------------------|
--0-----0-----0--0--0--0--0-----|
--0-----0-----0--0--0--0--0-----|
--0-----0-----0--0--0--0--0-----|


  PM    PM    PM PM PM PM PM     
  E  E  E  E  S  S  S  S  E  E   
--------------------------------|
--------------------------------|
--------------------------------|
--0-----0-----0--0--0--0--0-----|
--0-----0-----0--0--0--0--0-----|
--0-----0-----0--0--0--0--0-----|


  PM    PM    PM PM PM PM PM     
  E  E  E  E  S  S  S  S  E  E   
--------------------------------|
--------------------------------|
--------------------------------|
--0-----0-----0--0--0--0--0-----|
--0-----0-----0--0--0--0--0-----|
--0-----0-----0--0--0--0--0-----|


  PM    PM    PM PM PM PM PM     
  E  E  E  E  S  S  S  S  E  E   
--------------------------------|
--------------------------------|
--------------------------------|
--0-----0-----0--0--0--0--0-----|
--0-----0-----0--0--0--0--0-----|
--0-----0-----0--0--0--0--0-----|


  PM    PM    PM PM PM PM PM     
  E  E  E  E  S  S  S  S  E  E   
--------------------------------|
--------------------------------|
--------------------------------|
--0-----0-----0--0--0--0--0-----|
--0-----0-----0--0--0--0--0-----|
--0-----0-----0--0--0--0--0-----|


  PM    PM    PM PM PM PM PM     
  E  E  E  E  S  S  S  S  E  E   
--------------------------------|
--------------------------------|
--------------------------------|
--0-----0-----0--0--0--0--0-----|
--0-----0-----0--0--0--0--0-----|
--0-----0-----0--0--0--0--0-----|


  (I Dont Wanna Do Exact Time Till Breakdown.
  W                                          
---------------------------------------------
---------------------------------------------
---------------------------------------------
--1------------------------------------------
--1------------------------------------------
--1------------------------------------------


  W                   H          H         
-------------------|----------------------|
-------------------|----------------------|
-------------------|----------------------|
--L----------------|--LS--------12--------|
--L----------------|--LS--------12--------|
--L----------------|--LS--------12--------|


-------------------|-------------------|
-------------------|-------------------|
-------------------|-------------------|
-------------------|-------------------|
-------------------|-------------------|
-------------------|-------------------|


-------------------|-------------------|
-------------------|-------------------|
-------------------|-------------------|
-------------------|-------------------|
-------------------|-------------------|
-------------------|-------------------|


  PM PM    PM PM PM PM    PM PM  
  E  E  E  S  S  E  E  E  S  S   
--------------------------------|
--------------------------------|
--------------------------------|
--0--0-----0--0--0--0-----0--0--|
--0--0-----0--0--0--0-----0--0--|
--0--0-----0--0--0--0-----0--0--|


  PM PM               
  E  E  H.            
---------------------|
---------------------|
---------------------|
--0--0---------------|
--0--0---------------|
--0--0---------------|


  PM PM    PM PM PM PM    PM PM  
  E  E  E  S  S  E  E  E  S  S   
--------------------------------|
--------------------------------|
--------------------------------|
--0--0-----0--0--0--0-----0--0--|
--0--0-----0--0--0--0-----0--0--|
--0--0-----0--0--0--0-----0--0--|


  PM PM               
  E  E  H.            
---------------------|
---------------------|
---------------------|
--0--0---------------|
--0--0---------------|
--0--0---------------|


  PM PM    PM PM PM PM    PM PM  
  E  E  E  S  S  E  E  E  S  S   
--------------------------------|
--------------------------------|
--------------------------------|
--0--0-----0--0--0--0-----0--0--|
--0--0-----0--0--0--0-----0--0--|
--0--0-----0--0--0--0-----0--0--|


  H        H           Q    Q    Q    Q     
--------------------|----------------------|
--------------------|----------------------|
--------------------|----------------------|
--1--------1--------|--5----8----2----0----|
--1--------1--------|--5----8----1----0----|
--1--------1--------|--5----8----2----0----|


  PM PM    PM PM PM PM    PM PM  
  E  E  E  S  S  E  E  E  S  S   
--------------------------------|
--------------------------------|
--------------------------------|
--0--0-----0--0--0--0-----0--0--|
--0--0-----0--0--0--0-----0--0--|
--0--0-----0--0--0--0-----0--0--|


  PM PM               
  E  E  H.            
---------------------|
---------------------|
---------------------|
--0--0---------------|
--0--0---------------|
--0--0---------------|


  PM PM    PM PM PM PM    PM PM  
  E  E  E  S  S  E  E  E  S  S   
--------------------------------|
--------------------------------|
--------------------------------|
--0--0-----0--0--0--0-----0--0--|
--0--0-----0--0--0--0-----0--0--|
--0--0-----0--0--0--0-----0--0--|


  PM PM               
  E  E  H.            
---------------------|
---------------------|
---------------------|
--0--0---------------|
--0--0---------------|
--0--0---------------|


  PM PM    PM PM PM PM    PM PM  
  E  E  E  S  S  E  E  E  S  S   
--------------------------------|
--------------------------------|
--------------------------------|
--0--0-----0--0--0--0-----0--0--|
--0--0-----0--0--0--0-----0--0--|
--0--0-----0--0--0--0-----0--0--|


  H        H           Q    Q    Q    Q     
--------------------|----------------------|
--------------------|----------------------|
--------------------|----------------------|
--1--------1--------|--5----8----2----0----|
--1--------1--------|--5----8----1----0----|
--1--------1--------|--5----8----2----0----|


  W                   W                 
-------------------|-------------------|
-------------------|-------------------|
-------------------|-------------------|
--L----------------|--L----------------|
--L----------------|--L----------------|
--L----------------|--L----------------|


  W                   W                 
-------------------|-------------------|
-------------------|-------------------|
-------------------|-------------------|
--L----------------|--L----------------|
--L----------------|--L----------------|
--L----------------|--L----------------|


              PM PM    PM PM PM PM    PM PM  
  H           E  E  E  S  S  E  E  E  S  S   
-----------|--------------------------------|
-----------|--------------------------------|
-----------|--------------------------------|
--L--------|--0--0-----0--0--0--0-----0--0--|
--L--------|--0--0-----0--0--0--0-----0--0--|
--L--------|--0--0-----0--0--0--0-----0--0--|


  PM PM               
  E  E  H.            
---------------------|
---------------------|
---------------------|
--0--0---------------|
--0--0---------------|
--0--0---------------|


  PM PM    PM PM PM PM    PM PM  
  E  E  E  S  S  E  E  E  S  S   
--------------------------------|
--------------------------------|
--------------------------------|
--0--0-----0--0--0--0-----0--0--|
--0--0-----0--0--0--0-----0--0--|
--0--0-----0--0--0--0-----0--0--|


  PM PM               
  E  E  H.            
---------------------|
---------------------|
---------------------|
--0--0---------------|
--0--0---------------|
--0--0---------------|


  PM PM    PM PM PM PM    PM PM  
  E  E  E  S  S  E  E  E  S  S   
--------------------------------|
--------------------------------|
--------------------------------|
--0--0-----0--0--0--0-----0--0--|
--0--0-----0--0--0--0-----0--0--|
--0--0-----0--0--0--0-----0--0--|


  H        H         
--------------------|
--------------------|
--------------------|
--1--------1--------|
--1--------1--------|
--1--------1--------|


                 Gonna finish with 2 breakdow
  Q    Q    Q    Q                           
---------------------------------------------
---------------------------------------------
---------------------------------------------
--5----8----2----0---------------------------
--5----8----1----0---------------------------
--5----8----2----0---------------------------


-------|-------|-------|-------|-------|
-------|-------|-------|-------|-------|
-------|-------|-------|-------|-------|
-------|-------|-------|-------|-------|
-------|-------|-------|-------|-------|
-------|-------|-------|-------|-------|


-------|-------||
-------|-------||
-------|-------||
-------|-------||
-------|-------||
-------|-------||




Duration Legend
---------------
W - whole
H - half
Q - quarter
E - 8th
S - 16th
T - 32nd
X - 64th
. - note dotted
|-n-|  - n-tuplets


Tablature Legend
----------------
L - tied note
x - dead note
g - grace note
(n) - ghost note
> - accentuded note
NH - natural harmonic
AH - artificial harmonic
TH - tapped harmonic
SH - semi harmonic
PH - pitch harmonic
h - hammer on
p - pull off
b - bend
br - bendRelease
pb - preBend
pbr - preBendRelease
brb - bendReleaseBend
\n/ - tremolo bar dip
\n - tremolo bar dive
-/n - tremolo bar Release up
/n\ - tremolo bar inverted dip
/n - tremolo bar return
-\n - tremolo bar Release down
S - shift slide
s - legato slide
/ -  slide into from below or out of upwards
\ -  slide into from above or out of downwards
~ - vibrato
W - wide vibrato
tr - trill
TP - tremolo picking
T - tapping
S - slap
P - pop
< - fade in
^ - brush up
v - brush down

            
            
Suggest correction
Creating personal tab
Creating personal tab
You can edit any tab online and save it as your Personal.

You can edit, replace or remove any tab part or add personal notes – all changes will be seen only by you.

Personal tabs can be accessed anytime from any device, even offline.
Learn more »
Give kudos to tab author, rate the tab!
1 2 3 4 5
comments
print report bad tab
guest
You may want to rate the tab now too:
select rating
Wanna post a correction for this tab? Suggest correction