Oops, an error
Loading. Please wait.

Red And Dying Evening bass

version 1
version 1

Whole song

Interactive

by Alesana
1,548 views 1 this week
no commentswrite comment
1 2 3 4 5
2 more votes to show rating
add to favorites
×
Save as Personal and add changes to this tab that will be seen only by you. Learn more ›
×
You can save this tab as Personal to edit and correct it or add notes. All changes will be seen only by you. Learn more »
launch autoscroll
font size
0
reset
guitar tuner
edit
Autoscroll
slow
fast
+/-
esc
set tempo
stop
++++++++++++++++++++++++++++++++++
| Alesana- Red And Dying Evening |
++++++++++++++++++++++++++++++++++

Updated: Saturday 6/21/2008

This is the new Where Myth Fades To Legend Version
Enjoy!


"A lovely evening draped in regret..."

Tuning: Drop D (DADG)



Intro
"You've taken the last!!"
1.
G|-----------------|
D|-----------------|
A|-11111~--33333~--|
D|-----------------|

2.
G|--------------------------------------------|
D|--------------------------------------------|
A|----------------------------11111~--33333~--|--x4
D|-00000000-22222222-33333333-----------------|

3.
G|------|
D|------|
A|------|
D|-12\0-|

Verse
"The Gods of your innocence..."
4.
G|---------------------------|
D|---------------------------|
A|---------------------------|--x4
D|-5-78-578-10-8-0x-0x-0x-0x-|

Pre-Chorus
"You've taken the last of me!!!"
5.
G|----------------------------------------------------------------|
D|----------------------------------------------------------------|
A|-11x------------------------33333333-33333333-33333333-33333333-|
D|----------------------------------------------------------------|

"You deserve each tear that falls!!"
6.
G|----------------------------------------------------------------|
D|----------------------------------------------------------------|
A|-11x------------------------33333333-33333333-33333333-33333x---|
D|----------------------------------------------------------------|

Chorus
"And the blood will drown you in red and I..."
7.
G|--------------------------------------------------------------------------|
D|--------------------------------------------------------------------------|
A|-55555555-55555555-55555555-55550000-11111111-11111111-11111111-1111-xxxx-|
D|--------------------------------------------------------------------------|

"A lovely evening draped in regret..."
8.
G|--------------------------------------------------|
D|--------------------------------------------------|
A|-33333333-33333333-33333333-33333333-0~---0~---xx-|
D|--------------------------------------------------|

Outro
"Draped in regret!!!!"
9.
G|---------------------|
D|---------------------|
A|-00x--00x--00x--00x--|-- Each time slower
D|---------------------|

Verse
"The shadow of justice..."
10.
G|---------------------------|
D|---------------------------|
A|---------------------------|--x4
D|-5-78-578-10-8-0x-0x-0x-0x-|

Pre-Chorus
"You've taken the last of me!!!"
11.
G|----------------------------------------------------------------|
D|----------------------------------------------------------------|
A|-11x------------------------33333333-33333333-33333333-33333333-|
D|----------------------------------------------------------------|

"You deserve each tear that falls!!"
12.
G|----------------------------------------------------------------|
D|----------------------------------------------------------------|
A|-11x------------------------33333333-33333333-33333333-33333x---|
D|----------------------------------------------------------------|

Chorus
"And the blood will drown you in red and I..."
13.
G|--------------------------------------------------------------------------|
D|--------------------------------------------------------------------------|
A|-55555555-55555555-55555555-55550000-11111111-11111111-11111111-1111-xxxx-|
D|--------------------------------------------------------------------------|

"A lovely evening draped in regret..."
14.
G|-----------------------------------------------|
D|-----------------------------------------------|
A|-33333333-33333333-33333333-33333333-0~---0~---|
D|-----------------------------------------------|

"Forever now..."
15.
G|------------|
D|------------|
A|-00x--------|
D|------------|

"The taste of your death replaced..."
16.
G|--------------------------------------------------------------------------|
D|--------------------------------------------------------------------------|
A|-55555555-55555555-55555555-55550000-11111111-11111111-11111111-1111-xxxx-|
D|--------------------------------------------------------------------------|

"A lovely evening draped in regret..."
17.
G|-----------------------------------------------|
D|-----------------------------------------------|
A|-33333333-33333333-33333333-33333333-0~---0~---|
D|-----------------------------------------------|

Outro
"Suffocate your will to..."
18.
G|------------------------------------|
D|------------------------------------|
A|------------------------------------|
D|-10~-7~-9~-5~-9~--2~----------------|

"Live with my pain..."
19.
G|----------------------------|
D|----------------------------|
A|----------------------------|
D|-2~--------10~-7~-9x--------|

Bridge
"You were so easily seduced by greed..."
20.
G|-------------------------------------------------------------------------|
D|-------------------------------------------------------------------------|
A|-------------------22222222-22222222-33333333-33333333-00000000-00000000-|
D|-22222222-22222222-------------------------------------------------------|

"You could never feel my calloused hands..."
21.
G|-------------------------------------------------------------------------|
D|-------------------------------------------------------------------------|
A|-------------------22x----22x--------33x----33x--------00x----00x--------|
D|-22x----22x--------------------------------------------------------------|

"Throat..."
22.
G|--------------------------------------------|
D|--------------------------------------------|
A|--------------------------------------------|-- Each time slower
D|-22x--22x--22x--22x--22x--22x--22x----xxxxx-|

Verse
"Wake into the nightmare..."
23.
G|----------------------------------|
D|----------------------------------|
A|----------------------------------|--x4
D|-5-7-8-5-7-8-10-8-0~--0~--0~--0~--|

"You've taken the last of me!!"
24.
G|-----------------|
D|-----------------|
A|-----------------|
D|-5-7-8-5-7-8-10\-|


Lyrics:


You've taken the last...of me

The guise of your innocence shall not protect you from the wake of my wrath
You've taken the last of me, blame the end on yourself
You deserve each tear that falls
Scratch out your eyes 

And the blood will drown you in red
And I will leave you for dead
A lovely evening draped in regret

The shadow of justice now engulfs you as cold hands reap the pain they've sewn
You've taken the last of me, blame the end on yourself
You deserve each tear that falls
Scratch out your eyes 

And the blood will drown you in red
And I will leave you for dead
A lovely evening draped in regret...forever gone...
The taste of your death replaced the smell of your breath
A lovely evening draped in regret

Suffocate your will to...live with my pain
You were so easily seduced by greed
You could never feel my calloused hands closing around your throat

Wake into the nightmare that has become our love, may
Your screams never cease
You've taken the last of me

(Not all knights in shining armor can make your dreams come true)




+++++++++++++++++++++++++++++++++
| RaiLeff                       |
| Underground__Dora@Hotmail.Com |
+++++++++++++++++++++++++++++++++
Suggest correction
Creating personal tab
Creating personal tab
You can edit any tab online and save it as your Personal.

You can edit, replace or remove any tab part or add personal notes – all changes will be seen only by you.

Personal tabs can be accessed anytime from any device, even offline.
Learn more »
Give kudos to tab author, rate the tab!
1 2 3 4 5
comments
print report bad tab
guest
You may want to rate the tab now too:
select rating
Wanna post a correction for this tab? Suggest correction