Oops, an error
Loading. Please wait.

Seduction bass

version 1
version 1

Whole song

Interactive

by Alesana
14,079 views 1 this week
no commentswrite comment
1 2 3 4 5
x 4
add to favorites
×
Save as Personal and add changes to this tab that will be seen only by you. Learn more ›
×
You can save this tab as Personal to edit and correct it or add notes. All changes will be seen only by you. Learn more »
launch autoscroll
font size
0
reset
guitar tuner
edit
Autoscroll
slow
fast
+/-
esc
set tempo
stop
++++++++++++++++++++++
| Alesana- Seduction |
++++++++++++++++++++++

"One day you'll wake up and realize your mistake..."

Tuning: Drop D (DADG)


Verse
"You're killing me..."
1.
G|--------------------------|
D|--------------------------|
A|--------------------------|
D|---------------------0/12-|

"I would wait for years just to feel you again..."
2.
G|-------------------------------------------------------------------------------------|
D|-------------------------------------------------------------------------------------|
A|-00000x-00x-00x-0000x-22222x-22x-22x-2222x-44444x-44x-44x-4444x-44444x-42x-22x-2222x-|
D|-------------------------------------------------------------------------------------|

"Beautiful eyes, beautiful lies pour from your mouth as..."
3.
G|-------------------------------------------------------------------------66666666-|
D|----------------2h4-2h4----------------2------------------------------------------|
A|-00000x-00x-00x---------22222x-22x-22x---2-44444x-44x-44x-4444x-44444444----------|
D|----------------------------------------------------------------------------------|

Pre-Chorus
"Cries escape your sweet voice as I kiss you one last time..."
4.
G|-----------------------------------------|
D|-----------------------------------------|
A|-----------0x------------------0~--------|
D|-4x------------------4x------------------|

Chorus
"Do you remember me? And our beautiful affair?
5.
G|--------------------------------------------------------------------------|
D|--------------------------------------------------------------------------|
A|-44444444-44444444-44444444-4444-222-0-0000000-00000000-00000000-0000-222-|
D|--------------------------------------------------------------------------|

"Why did you turn your back on me?"
6.
G|----------------------------------------------------------------------|
D|----------------------------------------------------------------------|
A|---------------------------------0-0000000-00000000-22222222-22222222-|
D|-6~x----66~x----66~x----66~x----6-------------------------------------|

Verse
"Ice runs trough my veins as I stand face to face..."
7.
G|---------------------------------------------------------------4---2-|
D|-------------------------------------------------------------4---2---|
A|-------------------------------------00x-00x-00x-00x-00x-00x---------|
D|-16\-66x-66x-66x-66x-66x-66x-44x-66x---------------------------------|

"Compassion is not an option..."
8.
G|--------------------------------------------------------------222-|
D|------------------------------------------------------------------|
A|---------------------------------00x-00x-00x-00x-00000000-0000----|
D|-66x-66x-44x-44x-66x-66x-44x-66x----------------------------------|

Pre-Chorus
"Cries escape your sweet voice as I kiss you one last time..."
9.
G|-----------------------------------------|
D|-----------------------------------------|
A|-----------0x------------------0~--------|
D|-4x------------------4x------------------|

Chorus
"Do you remember me? And our beautiful affair?
10.
G|--------------------------------------------------------------------------|
D|--------------------------------------------------------------------------|
A|-44444444-44444444-44444444-4444-222-0-0000000-00000000-00000000-0000-222-|
D|--------------------------------------------------------------------------|

"Why did you turn your back on me?"
11.
G|----------------------------------------------------------------------|
D|----------------------------------------------------------------------|
A|---------------------------------0-0000000-00000000-22222222-22222222-|
D|-6~x----66~x----66~x----66~x----6-------------------------------------|

Outro
"In love we're one! Inseparable, pathetic lust..."
12.
G|---------------------------------------------------------|
D|---------------------------------------------------------|
A|---------------444x--444x------------------000x--000x----|
D|-----------------------------444x--444x------------------|

"I saw your eyes! I wiped your tears..."
13.
G|-----------------------------------------------------------------------------|
D|---------------4h6p4~---------------4/7~----------------------------66666666-|
A|-44444444-4444--------44444444-4444------------------------------------------|
D|-----------------------------------------44444444-44444444-66666666----------|

Bridge
14.
G|-------------------------------------------------------------------------|
D|-------------------------------------------------------------------------|
A|-00000000-00000000-22222222-22222222-44444444-44444444-44444444-22222222-|--x2
D|-------------------------------------------------------------------------|

"Who do you see with your eyes shut tight?"
15.
G|--------------------------------------------------------------------------|
D|--------------2h4p2---------------2---------------------------------------|
A|-00000000-0000------22222222-2222---2-44444444-44444444-44444444-22222222-|
D|--------------------------------------------------------------------------|

"Regret will be your bride..."
16.
G|---------------------------------------------------------------------|
D|--------------2h4p2---------------2----------------------------------|
A|-00000000-0000------22222222-2222---2-44x-44x-44x-44x-44x-4\0--------|
D|---------------------------------------------------------------------|

Chorus
"Do you remember me? And our beautiful affair?
17.
G|--------------------------------------------------------------------------|
D|--------------------------------------------------------------------------|
A|-44444444-44444444-44444444-4444-222-0-0000000-00000000-00000000-0000-222-|
D|--------------------------------------------------------------------------|

"Why did you turn your back on me?"
18.
G|----------------------------------------------------------------------|
D|----------------------------------------------------------------------|
A|---------------------------------0-0000000-00000000-22222222-22222222-|
D|-6~x----66~x----66~x----66~x----6-------------------------------------|

Outro
"Cries escape your sweet voice as I paint my own goodbye..."
19.
G|-------------------------------------------------|
D|-------------------------------------------------|
A|-----------0x------------------0~----------------|
D|-4x------------------4x--------------------------|

Here's where the acoustic part begins
Bass comes in at   4:10


20.
G|--------------------------------------7~/9-6~--------------------------------------7~/9-6~--|
D|--------------------------------------------------------------------------------------------|
A|---------0-----0-----------------0---------------------0-----0-----------------0------------|
D|-0~--2-3---2-3---3-2~----0~--2-3---3-----------0~--2-3---2-3---3-2~----0~--2-3---3----------|

21.
G|-------------------------------------7---------------|
D|-----------------------------------7---5-0-3~--3h5p3-|
A|-1~-1~-3~-3~-5~-5~-1~----1~---3~---------------------|--x2
D|-----------------------------------------------------|

22.
G|-------------------------------|
D|-------------------------------|
A|-1~---3~-----\0~---------------|
D|-------------------------------|



Lyrics:


Sunlight warms my face only in dreams of you
I know you'll wait for me...it's been too long
Beautiful eyes. beautiful lies to dull the pain
Beautiful eyes, beautiful lies...you're killing me
I would wait for years just to feel you again
I will die without you...would you my love?
Beautiful eyes, beautiful lies pour from your mouth as
You scream his name...you're killing me

Cries escape your sweet voice as I kiss you one last time
...One last time...
Do you remember me and our beautiful affair?
Look in my eyes and honestly tell me our love is gone!
Why have you turned your back on me?
One day you'll wake up and realize your mistake

Ice runs through my veins as I stand face to face with
The one who stole it all
Compassion is not an option

In love we're one, inseparable, pathetic lust, thus we crumble
I saw your eyes, I wiped your tears, I waited for you...

Who do you see with your eyes shut tight?
Regret will be your bride
Goodbye...

Cries escape your sweet voice as I paint my own goodbye


+++++++++++++++++++++++++++++++++
| RaiLeff                       |
| Underground__Dora@Hotmail.Com |
+++++++++++++++++++++++++++++++++
Suggest correction
Creating personal tab
Creating personal tab
You can edit any tab online and save it as your Personal.

You can edit, replace or remove any tab part or add personal notes – all changes will be seen only by you.

Personal tabs can be accessed anytime from any device, even offline.
Learn more »
comments
print report bad tab
guest
You may want to rate the tab now too:
select rating
Wanna post a correction for this tab? Suggest correction