Oops, an error
Loading. Please wait.

The Artist bass

version 1
version 1

Whole song

Interactive

by Alesana
2,453 views 1 this week
no commentswrite comment
1 2 3 4 5
2 more votes to show rating
add to favorites
×
Save as Personal and add changes to this tab that will be seen only by you. Learn more ›
×
You can save this tab as Personal to edit and correct it or add notes. All changes will be seen only by you. Learn more »
launch autoscroll
font size
0
reset
guitar tuner
edit
Autoscroll
slow
fast
+/-
esc
set tempo
stop
Author
+++++++++++++++++++++++
| Alesana- The Artist |
+++++++++++++++++++++++


"Sweaty hands will fail to lock the door..."

Tuning: Drop D (DADG)


Intro
1.
G|----------------------------------------------------------------------|
D|----------------------------------------------------------------------|
A|--------------------------------------------------0h1p0-----0-1-0-----|
D|--------------------------------------------------------3-5-------5-3-|

Verse
"What is wrong with her eyes?"
2.
G|----------------------------------------------------------------------------|
D|-------------------------------------------------------0003-33--------------|
A|-------------------11111111-11111111--------------------------00-4444-4h5p4-|
D|-00000000-00000000-------------------55555555-55555555----------------------|

"But she's not, dont you tell me that she is dead..."
3.
G|---------------------------------------------------------------------------|
D|-------------------------------------------------------0003-3333-----------|
A|-------------------11111111-11111111-----------------------------4000-0000-|
D|-00000000-00000000-------------------55555555-55555555---------------------|

"But I cannot stand to turn away..."
4.
G|-----------------------------------------------------------|
D|-------------------------------3-2---3-2---3-2---3-2---3-2-|
A|---------------------1~------------3-----3-----3-----3-----|
D|-0~--------3~----------------------------------------------|

Pre-Chorus
"Sweaty hands will fail to lock the door..."
5.
G|-----------------------------------------------------------------------------------------|
D|-------------------------------------------------0000-2222-3333-5555---------------------|
A|-1-1-1-1x----1-1-1-1x----0-0-0-0x----0-0-0-0x--------------------------------------------|--x2
D|---------------------------------------------------------------------0000-2222-3333-5555-|

Chorus
"Maybe I am crazy and my mind is trying to deceive me..."
6.
G|-----------------------------------------------------------------------|
D|-----------------------------------------------------------------------|
A|-11111111-11111113-3333333-33333333------------------------------------|
D|------------------------------------0x--0x--0x--00x----0x--0x--0x--000-|

"Paint abandons canvas..."
7.
G|-----------------------------------------------------------------------|
D|--------------333-5555555----------------------------------------------|
A|-11111111-1111-----------3-33333333------------------------------------|
D|------------------------------------0x--0x--0x--00x----0x--0x--0x--000-|

Outro
"Why should I even try to stop the collapse..."
8.
G|---------------|
D|---------------|
A|-1~----1-3x----|
D|---------------|

Verse
"Shaking as I rest her body down..."
9.
G|-----------------------------------------------------------------------------------|
D|-------------------------------------------------------3-2---3-2---3-2---3-2---3-2-|
A|-------------------------------------11111111-11111111-----3-----3-----3-----3-----|
D|-00000000-00000000-33333333-33333333-----------------------------------------------|

Pre-Chorus
"Sweaty hands will fail to lock the door..."
10.
G|-----------------------------------------------------------------------------------------|
D|-------------------------------------------------0000-2222-3333-5555---------------------|
A|-1-1-1-1x----1-1-1-1x----0-0-0-0x----0-0-0-0x--------------------------------------------|--x2
D|---------------------------------------------------------------------0000-2222-3333-5555-|

Chorus
"Maybe I am crazy and my mind is trying to deceive me..."
11.
G|-----------------------------------------------------------------------|
D|-----------------------------------------------------------------------|
A|-11111111-11111113-3333333-33333333------------------------------------|
D|------------------------------------0x--0x--0x--00x----0x--0x--0x--000-|

"Paint abandons canvas..."
12.
G|-----------------------------------------------------------------------|
D|--------------333-5555555----------------------------------------------|
A|-11111111-1111-----------3-33333333------------------------------------|
D|------------------------------------0x--0x--0x--00x----0x--0x--0x--000-|

Outro
"Why should I even try to stop the collapse..."
13.
G|---------------------------------------------------------------|
D|---------------------------------------------------------------|
A|-1~----1-3~----3-5~----3-5~----5-1~----1-3~----3-5~----5-0~----|
D|---------------------------------------------------------------|

Bridge
"There's a madman glaring straight at me..." 
14.
G|-----------------------------------------|
D|-----------------------------------------|
A|-----------------------------------------|
D|-0~--------0~--------0~--------0~--------|

15.
G|---------------------------------------------------------------------------------|
D|-------------------------------------------------------------3333-5555-7777-7777-|
A|---------------------------------------------------------------------------------|
D|-0000-2222-3333-5555-0000-2222-3333-5555-0000-2222-3333-5555---------------------|

Chorus
"Maybe I am crazy and my mind is trying to deceive me..."
16.
G|-----------------------------------------------------------------------|
D|-----------------------------------------------------------------------|
A|-11111111-11111113-3333333-33333333------------------------------------|
D|------------------------------------0x--0x--0x--00x----0x--0x--0x--000-|

"Paint abandons canvas..."
17.
G|-----------------------------------------------------------------------|
D|--------------333-5555555----------------------------------------------|
A|-11111111-1111-----------3-33333333------------------------------------|
D|------------------------------------0x--0x--0x--00x----0x--0x--0x--000-|

Outro
"I wont..."
18.
G|--------------|
D|--------------|
A|--------------|
D|-0~--------0x-|



Lyrics:

What is wrong with her eyes?
A glossy stare that won't leave me be starts my blood running cold.
A gaze that could make hell freeze over...
I have to understand she's gone...
But she's not!
Don't you tell me that she is dead!
Watch her lips softly move because she's still whispering to me!
And something here is not quite right...

Skin so cold beneath my touch as I brush back her hair and close her eyes.
But I cannot stand to turn away.
When I do, she'll be gone...
It's frightening...

Sweaty hands will fail to lock the door...
They'll be here soon.
I wish I could keep my teeth from grinding.
I wish I'd stop looking behind me.
Running now will only make it worse...
They'll be here soon.
I wish I could shake the awful feeling.
I wish my mind would stop...

Maybe I am crazy and my mind is trying to deceive me.
As the ground vanishes I wonder will the sky be the next to fail me?
Paint abandons canvas.
And my brush can't seem to start again from scratch.
As I watch everything unravel, why should I even try to stop the collapse?
I won't...

Shaking as I rest her body down.
No one knows, only me...
It's frightening...

There's a madman glaring straight at me!
Oh I know I've seen his face before...
I am sure I've seen his face before...



+++++++++++++++++++++++++++++++++
| RaiLeff                       |
| Underground__Dora@Hotmail.Com |
+++++++++++++++++++++++++++++++++
Suggest correction
Creating personal tab
Creating personal tab
You can edit any tab online and save it as your Personal.

You can edit, replace or remove any tab part or add personal notes – all changes will be seen only by you.

Personal tabs can be accessed anytime from any device, even offline.
Learn more »
Give kudos to tab author, rate the tab!
1 2 3 4 5
comments
print report bad tab
guest
You may want to rate the tab now too:
select rating
Wanna post a correction for this tab? Suggest correction