Oops, an error
Loading. Please wait.

The Dark Wood Of Error tab

version 1
version 1

Whole song

Interactive

by Alesana
915 views 1 this week
no commentswrite comment
1 2 3 4 5
3 more votes to show rating
add to favorites
×
Save as Personal and add changes to this tab that will be seen only by you. Learn more ›
×
You can save this tab as Personal to edit and correct it or add notes. All changes will be seen only by you. Learn more »
launch autoscroll
font size
0
reset
how to read this tab
guitar tuner
edit
Autoscroll
slow
fast
+/-
esc
set tempo
stop
Please rate and/or leave your feedback.

Song: The Dark Wood Of Error
Band: Alesana
Album: A Place Where The Sun Is Silent
Tabbed by: Mr. Picky
Tuning: Drop D

This may not be 100% accurate since the song is in piano.
But this should help you with playing it on guitar.
You can actually just strum the chords if you want to make
an acoustic version of it. Have fun!

Verse (0:18 in):
e||-------------------------------------------------||
B||-------------------------------------------------||    _
G||------2---2---2--2-0-----------------------------|| \/ _|
D||-----2---2---2-------3-------2-----2-----2-3~----|| /\|_
A||----0---0---0------------0-3---0-3---0-3---------||
D||-------------------------------------------------||

Chorus:
e||--------------------------||
B||------1----3----5--85-----||    _
G||-----2----4----5-----5----|| \/ _|
D||----3----5----7-----------|| /\ _|
A||--------------------------||
D||--------------------------||

e||--------------------||
B||------1----3--------||
G||-----2----4---5~----||
D||----3----5----5~----||
A||--------------3~----||
D||--------------------||

Verse:
e||-------------------------------------------------||
B||-------------------------------------------------||    _
G||------2---2---2--2-0-----------------------------|| \/ _|
D||-----2---2---2-------3-------2-----2-----2-3~----|| /\|_
A||----0---0---0------------0-3---0-3---0-3---------||
D||-------------------------------------------------||

Chorus:
e||--------------------------||
B||------1----3----5--85-----||    _
G||-----2----4----5-----5----|| \/ _|
D||----3----5----7-----------|| /\ _|
A||--------------------------||
D||--------------------------||

e||--------------------||
B||------1----3--------||
G||-----2----4---5~----||
D||----3----5----5~----||
A||--------------3~----||
D||--------------------||

-- END --

            
            
Suggest correction
Creating personal tab
Creating personal tab
You can edit any tab online and save it as your Personal.

You can edit, replace or remove any tab part or add personal notes – all changes will be seen only by you.

Personal tabs can be accessed anytime from any device, even offline.
Learn more »
Give kudos to tab author, rate the tab!
1 2 3 4 5
comments
print report bad tab
guest
You may want to rate the tab now too:
select rating
Wanna post a correction for this tab? Suggest correction