Oops, an error
Loading. Please wait.

The Emptiness album bass

by Alesana
5,558 views 3 this week
3 commentsread comments
1 2 3 4 5
x 10
add to favorites
×
Save as Personal and add changes to this tab that will be seen only by you. Learn more ›
×
You can save this tab as Personal to edit and correct it or add notes. All changes will be seen only by you. Learn more »
launch autoscroll
font size
0
reset
guitar tuner
edit
Autoscroll
slow
fast
+/-
esc
set tempo
stop
Author
++++++++++++++++++++++++++
| Alesana- The Emptiness |
++++++++++++++++++++++++++


Bass Tab
Album: "The Emptiness" -- 2010


"The emptiness will haunt you..."


After some hard work
I give you the latest Alesana album
on bass, I know some of you were waiting for it (I got some PMS)
but I took some time.. but its finally here :D
I really enjoyed all the songs of this album
At first I didnt really like them but then they hit me hard
Ok, here it is enjoy 
and please please rate my hard work (its like paying me)!!



RaiLeff

____________________________________________________________

Tuning: Drop D (DADG) and Standard EADG


Keys:

| x: Mute
| ~: Let Ring
| /: Slide Up
| \: Slide Down
| h: Hammer On
| p: Pull Off


Track List:


1. Curse Of The Virgin Canvas
2. The Artist
3. A Lunatic's Lament
4. The Murderer 
5. Hymn For The Shameless
6. The Thespian
7. Heavy Hangs The Albatross
8. The Lover
9. In Her Tomb By The Sounding Sea
10. To Be Scared By An owl
11. Annabel


_______________________________________________________________

1.

+++++++++++++++++++++++++++++++++++++++
| Alesana- Curse Of The Virgin Canvas |
+++++++++++++++++++++++++++++++++++++++


"My angel lie to me..."

Tuning: Drop D (DADG)


Intro
1.
G|-------------------------------------------------------------------------------------|
D|-------------------------------------------------------------------------------------|
A|-----------3~----0~----1~--------3~------------------3~----0~----1~--------3~---3333-|
D|-0~----------------------------------------0~----------------------------------------|

Verse
"This is a nightmare..."
2.
G|-------------------------------------------------------------|
D|-------------------------------------------------------------|
A|--------------------------1-1111111-11111110-0000004-4444444-|
D|-0~-0x--------0~-0x------------------------------------------|

"Her body teases me..."
3.
G|------------------------------------------------------------------------------|
D|------------------------------------------------------------------------------|
A|-------------------------------------------1-1111111-11111110-0000004-4444444-|
D|-0~-0x-0x-0x-0x-0x-0~-0~-0x-0x-0x-0x-0x-0~------------------------------------|

Pre-Chorus
"Baby, lay in my arms..."
4.
G|----------------------------------------------------------------------------------|
D|----------------------------------------------------------------------------------|
A|-1~--------3~--------5~--------0~--------0--1~--------3~--------------------------|
D|-------------------------------------5~-------------------------0~----------------|

Chorus
"My angel lie to me..."
5.
G|-------------------------------------------------------------------------|
D|-------------------------------------------------------------------------|
A|-------------------33333333-00000000-11111111-11111111-33333333-33333333-|
D|-00000000-00000000-------------------------------------------------------|

"A girl like you will always be..."
6.
G|---------------------------------------------------------------------------------------|
D|-7p0-5p0-3p0-5p0-7p0-5p0-3p0-5p0-------------------------------------------------------|
A|---------------------------------33333333-00000000-11111111-11111111-33333333-33333333-|
D|---------------------------------------------------------------------------------------|

Verse
"I watch the blood drip..."
7.
G|-------------------------------------------------------------|
D|-------------------------------------------------------------|
A|--------------------------1-1111111-11111110-0000004-4444444-|
D|-0~-0x--------0~-0x------------------------------------------|

"Im starting to believe..."
8.
G|------------------------------------------------------------------------------|
D|------------------------------------------------------------------------------|
A|-------------------------------------------1-1111111-11111110-0000004-4444444-|
D|-0~-0x-0x-0x-0x-0x-0~-0~-0x-0x-0x-0x-0x-0~------------------------------------|

Pre-Chorus
"Baby, lay in my arms..."
9.
G|----------------------------------------------------------------------------------|
D|----------------------------------------------------------------------------------|
A|-1~--------3~--------5~--------0~--------0--1~--------3~--------------------------|
D|-------------------------------------5~-------------------------0~----------------|

Chorus
"My angel lie to me..."
10.
G|-------------------------------------------------------------------------|
D|-------------------------------------------------------------------------|
A|-------------------33333333-00000000-11111111-11111111-33333333-33333333-|
D|-00000000-00000000-------------------------------------------------------|

"A girl like you will always be..."
11.
G|---------------------------------------------------------------------------------------|
D|-7p0-5p0-3p0-5p0-7p0-5p0-3p0-5p0-------------------------------------------------------|
A|---------------------------------33333333-00000000-11111111-11111111-33333333-33333333-|
D|---------------------------------------------------------------------------------------|

Outro
"Sweet revenge..."
12.
G|-----------------------------------------------------|
D|-----------------------------------------------------|
A|-----------------------------------------------------|
D|-0x----0x----0x----0x----000000-000000-000000-000000-|

Bridge
"Empty eyes accuse..."
13.
G|-----------------------------------------|
D|-----------------------------------------|
A|-0~--------0~----------------------------|--x2
D|---------------------0~--------3~--------|

14.
G|---------------------------------------------------|
D|---------------------------------------------------|
A|-0~--------0~--------------------------------------|
D|-----------------5~----0~--------33333333-33333333-|

"So terribly memory returns of her struggle..."
15.
G|------------------------------------------------------------------------------------|
D|------------------------------------------------------------------------------------|
A|-0000x--0000x--0x-0x--0000x--0000x--0x-0x-------------------------------------------|--x2
D|-------------------------------------------0000x--0000x--0x-0x--3333x--3333x--3x-3x-|

Pre-Chorus
"Such an awful memory..."
16.
G|----------------------------------------|
D|----------------------------------------|
A|-1~--------3~---------------------------|
D|---------------------0~-----------------|

Chorus
"My angel lie to me..."
17.
G|-------------------------------------------------------------------------|
D|-------------------------------------------------------------------------|
A|-------------------33333333-00000000-11111111-11111111-33333333-33333333-|
D|-00000000-00000000-------------------------------------------------------|

"A girl like you will always be..."
18.
G|---------------------------------------------------------------------------------------|
D|-7p0-5p0-3p0-5p0-7p0-5p0-3p0-5p0-------------------------------------------------------|
A|---------------------------------33333333-00000000-11111111-11111111-33333333-33333333-|
D|---------------------------------------------------------------------------------------|

Outro
19.
G|-----------------------------------------------------|
D|-----------------------------------------------------|
A|-----------------------------------------------------|
D|-0x----0x----0x----0x----000000-000000-000000-000000-|


Lyrics:

I am here to tell you a story
A story that will torture your thoughts by day and poison your dreams by night
And though I will do my best, there are no words
that can be written nor brush strokes laid on canvas
that can describe the stark and utter horror of the night that Annabel died.
The emptiness will haunt you.

This is a nightmare, is my Annabel really gone?
My eyes are stung by daylight, I find it hard to breathe.
Her body teases me as the sun reveals the dawn.
The smell of blood still crawls, I kiss you softly goodbye.

Baby, lay in my arms and cuddle me close.
Soon this will be just an awful memory...
Will I ever be able to sleep again?

My angel lie to me and tell me I'm dreaming
please wake me up, please wake me
A girl like you will always be such a tragic part of me
oh ecstasy you torture me

I watch the blood drip from the corners of your mouth.
Your icy flesh is lying, your pallid skin still glows.
I'm starting to believe what my eyes are seeing now.
You're still so beautiful and yet so morbidly still.

Sweet revenge... He will pay, he will pay my dear.
Empty eyes accuse a face so evil, I'm coming undone.
The mirror says it all, a crimson story of innocence lost.
Empty eyes accuse a face so evil, I'm coming undone.
What have I done to her?

So terribly memory returns of her struggle, of her screams, of her.
Lord forgive me!
My stomach heaves as I see the blood that covers me.
Blood that was once hers.
I'm a monster!

A mirror never lies, they know
Everybody knows
Do you not see what they see?
A mirror never lies
I see what they see. Everybody knows. Everybody knows


________________________________________________________________________________

2.

+++++++++++++++++++++++
| Alesana- The Artist |
+++++++++++++++++++++++


"Sweaty hands will fail to lock the door..."

Tuning: Drop D (DADG)


Intro
1.
G|----------------------------------------------------------------------|
D|----------------------------------------------------------------------|
A|--------------------------------------------------0h1p0-----0-1-0-----|
D|--------------------------------------------------------3-5-------5-3-|

Verse
"What is wrong with her eyes?"
2.
G|----------------------------------------------------------------------------|
D|-------------------------------------------------------0003-33--------------|
A|-------------------11111111-11111111--------------------------00-4444-4h5p4-|
D|-00000000-00000000-------------------55555555-55555555----------------------|

"But she's not, dont you tell me that she is dead..."
3.
G|---------------------------------------------------------------------------|
D|-------------------------------------------------------0003-3333-----------|
A|-------------------11111111-11111111-----------------------------4000-0000-|
D|-00000000-00000000-------------------55555555-55555555---------------------|

"But I cannot stand to turn away..."
4.
G|-----------------------------------------------------------|
D|-------------------------------3-2---3-2---3-2---3-2---3-2-|
A|---------------------1~------------3-----3-----3-----3-----|
D|-0~--------3~----------------------------------------------|

Pre-Chorus
"Sweaty hands will fail to lock the door..."
5.
G|-----------------------------------------------------------------------------------------|
D|-------------------------------------------------0000-2222-3333-5555---------------------|
A|-1-1-1-1x----1-1-1-1x----0-0-0-0x----0-0-0-0x--------------------------------------------|--x2
D|---------------------------------------------------------------------0000-2222-3333-5555-|

Chorus
"Maybe I am crazy and my mind is trying to deceive me..."
6.
G|-----------------------------------------------------------------------|
D|-----------------------------------------------------------------------|
A|-11111111-11111113-3333333-33333333------------------------------------|
D|------------------------------------0x--0x--0x--00x----0x--0x--0x--000-|

"Paint abandons canvas..."
7.
G|-----------------------------------------------------------------------|
D|--------------333-5555555----------------------------------------------|
A|-11111111-1111-----------3-33333333------------------------------------|
D|------------------------------------0x--0x--0x--00x----0x--0x--0x--000-|

Outro
"Why should I even try to stop the collapse..."
8.
G|---------------|
D|---------------|
A|-1~----1-3x----|
D|---------------|

Verse
"Shaking as I rest her body down..."
9.
G|-----------------------------------------------------------------------------------|
D|-------------------------------------------------------3-2---3-2---3-2---3-2---3-2-|
A|-------------------------------------11111111-11111111-----3-----3-----3-----3-----|
D|-00000000-00000000-33333333-33333333-----------------------------------------------|

Pre-Chorus
"Sweaty hands will fail to lock the door..."
10.
G|-----------------------------------------------------------------------------------------|
D|-------------------------------------------------0000-2222-3333-5555---------------------|
A|-1-1-1-1x----1-1-1-1x----0-0-0-0x----0-0-0-0x--------------------------------------------|--x2
D|---------------------------------------------------------------------0000-2222-3333-5555-|

Chorus
"Maybe I am crazy and my mind is trying to deceive me..."
11.
G|-----------------------------------------------------------------------|
D|-----------------------------------------------------------------------|
A|-11111111-11111113-3333333-33333333------------------------------------|
D|------------------------------------0x--0x--0x--00x----0x--0x--0x--000-|

"Paint abandons canvas..."
12.
G|-----------------------------------------------------------------------|
D|--------------333-5555555----------------------------------------------|
A|-11111111-1111-----------3-33333333------------------------------------|
D|------------------------------------0x--0x--0x--00x----0x--0x--0x--000-|

Outro
"Why should I even try to stop the collapse..."
13.
G|---------------------------------------------------------------|
D|---------------------------------------------------------------|
A|-1~----1-3~----3-5~----3-5~----5-1~----1-3~----3-5~----5-0~----|
D|---------------------------------------------------------------|

Bridge
"There's a madman glaring straight at me..." 
14.
G|-----------------------------------------|
D|-----------------------------------------|
A|-----------------------------------------|
D|-0~--------0~--------0~--------0~--------|

15.
G|---------------------------------------------------------------------------------|
D|-------------------------------------------------------------3333-5555-7777-7777-|
A|---------------------------------------------------------------------------------|
D|-0000-2222-3333-5555-0000-2222-3333-5555-0000-2222-3333-5555---------------------|

Chorus
"Maybe I am crazy and my mind is trying to deceive me..."
16.
G|-----------------------------------------------------------------------|
D|-----------------------------------------------------------------------|
A|-11111111-11111113-3333333-33333333------------------------------------|
D|------------------------------------0x--0x--0x--00x----0x--0x--0x--000-|

"Paint abandons canvas..."
17.
G|-----------------------------------------------------------------------|
D|--------------333-5555555----------------------------------------------|
A|-11111111-1111-----------3-33333333------------------------------------|
D|------------------------------------0x--0x--0x--00x----0x--0x--0x--000-|

Outro
"I wont..."
18.
G|--------------|
D|--------------|
A|--------------|
D|-0~--------0x-|



Lyrics:

What is wrong with her eyes?
A glossy stare that won't leave me be starts my blood running cold.
A gaze that could make hell freeze over...
I have to understand she's gone...
But she's not!
Don't you tell me that she is dead!
Watch her lips softly move because she's still whispering to me!
And something here is not quite right...

Skin so cold beneath my touch as I brush back her hair and close her eyes.
But I cannot stand to turn away.
When I do, she'll be gone...
It's frightening...

Sweaty hands will fail to lock the door...
They'll be here soon.
I wish I could keep my teeth from grinding.
I wish I'd stop looking behind me.
Running now will only make it worse...
They'll be here soon.
I wish I could shake the awful feeling.
I wish my mind would stop...

Maybe I am crazy and my mind is trying to deceive me.
As the ground vanishes I wonder will the sky be the next to fail me?
Paint abandons canvas.
And my brush can't seem to start again from scratch.
As I watch everything unravel, why should I even try to stop the collapse?
I won't...

Shaking as I rest her body down.
No one knows, only me...
It's frightening...

There's a madman glaring straight at me!
Oh I know I've seen his face before...
I am sure I've seen his face before...

________________________________________________________________________

3.

+++++++++++++++++++++++++++++++
| Alesana- A Lunatic's Lament |
+++++++++++++++++++++++++++++++


"You're the only girl I've ever dreamed of..."

Tuning: Drop D (DADG)


Intro
"If only you could see..."
1.
G|-----------------------------------------------------------------|
D|-----------------------------------------------------------------|
A|-1-1-1-1-1-1-1-1-3-3-3-3-3-3-3-3-5-5-5-5-5-5-5-5-5-5-5-5-0-0-0-0-|
D|-----------------------------------------------------------------|

"If only you could see..."
2.
G|---------------------------------------------------------------------|
D|---------------------------------------------------------------------|
A|-1-1-1-1-1-1-1-1-3-3-3-3-3-3-3-3-5-5-5-5-5-5-5-5-5-5-5-5-0x-0x-0x-0x-|
D|---------------------------------------------------------------------|

Verse
"Should I apologize..."
3.
G|-------------------------------------------------------------------------|
D|-------------------------------------------------------------------------|
A|-1-1111111-11111113-3333333-33333335-5555555-55555553-333333-0x-0x-0x-0x-|--x2
D|-------------------------------------------------------------------------|

Pre-Chorus
4.
G|-----------|
D|-----------|
A|-1~--------|
D|-----------|

Chorus
"Darling will you please..."
5.
G|------------------------------------------------------------------|
D|------------------------------------------------------------------|
A|-------------------------0-0-0-0-1-1-1-1-1-1-1-1-3-3-3-3--3x--3x--|--x2
D|-0-0-0-0-0-0-0-0-5-5-5-5------------------------------------------|

Outro
"Are you satisfied?"
6.
G|---------------------------------------------|
D|---------------------------------------------|
A|---------------------------------0x-0x-0x-0x-|
D|-0~----------------0~------------------------|

Verse
"What fate has led me here..."
7.
G|-------------------------------------------------------------------------|
D|-------------------------------------------------------------------------|
A|-1-1111111-11111113-3333333-33333335-5555555-55555553-333333-0x-0x-0x-0x-|--x2
D|-------------------------------------------------------------------------|

Pre-Chorus
8.
G|-----------|
D|-----------|
A|-1~--------|
D|-----------|

Chorus
"Darling will you please..."
9.
G|------------------------------------------------------------------|
D|------------------------------------------------------------------|
A|-------------------------0-0-0-0-1-1-1-1-1-1-1-1-3-3-3-3--3x--3x--|--x2
D|-0-0-0-0-0-0-0-0-5-5-5-5------------------------------------------|

Outro
"Are you satisfied?"
10.
G|-----------------------------------------------------------------------------------------|
D|-----------------------------------------------------------------------------------------|
A|----------------------------------------0000--------------------0000---------------------|
D|-0~----------------0~----------------555-----0~--------0~----555-----0~--------0~--------|

Bridge
11.
G|------------------------------------------------------------------|
D|------------------------------------------------------------------|
A|-------------------------0-0-0-0-1-1-1-1-1-1-1-1-3-3-3-3--3x--3x--|--x2
D|-0-0-0-0-0-0-0-0-5-5-5-5------------------------------------------|

"I wish you could see..."
12.
G|------------------|
D|------------------|
A|------------------|
D|-0~---------------|

Chorus
"Darling will you please..."
13.
G|------------------------------------------------------------------|
D|------------------------------------------------------------------|
A|-------------------------0-0-0-0-1-1-1-1-1-1-1-1-3-3-3-3--3x--3x--|--x2
D|-0-0-0-0-0-0-0-0-5-5-5-5------------------------------------------|

Outro
"Are you satisfied?"
14.
G|---------------------------------------------------------------|
D|---------------------------------------------------------------|
A|---------333-111---------333-111---------333-111-------333-111-|
D|-0x--0x----------0x--0x----------0x--0x----------0x-0x---------|


Lyrics:

If only you could see
You're the only girl I've ever dreamed of

Should I apologize to such pathetic eyes
Just the sight of you has made me sick tonight (tonight)
It was your poison kiss that turned me into this
Then again there is a chance you could be mine tonight

Darling will you please take a walk with me?
We can count the stars that disappear...(I wish you could see)
I wish you could see, you're the only girl I've ever dreamed of
Are you satisfied?

What fate has led me here... Oh please forgive me dear
I don't know if I could survive on my own (my own)
I could have married you instead I buried you
Now I will see if I can fall asleep alone (alone)

The nightmares coming true
Girl it's only you
I'm telling you the truth

The depths of a mans soul can not be measured in a manor of meters
and fathoms; but rather, it is in my opinion, only quantified by his
proximity to haven and hell. It was in such a state I ushered myself
passed the town tavern, bursting at the seams with the sounds laughter
and drunken piano playing. Had it only been a different night, a
different place, a different kind of man passing by the threshold
of that innocent pub, the events that transpired at that point
would have undoubtedly been drastically different. I can only guess if
anyone outside that place had a clue when those exclamations of mirth became the
desperate screams of the helpless begging for their very lives 

__________________________________________________________________________________-

4.

+++++++++++++++++++++++++
| Alesana- The Murderer |
+++++++++++++++++++++++++


"Oh how blood turns me on..."

Tuning: Drop D (DADG)


Intro
"Is it about time?"
1.
G|---------------------------------------------------------------------------------|
D|---------------------------------------------------------------------------------|
A|---------------------------------------------------------------------------------|
D|-0-0-00-0-00x--------0-0-00-0-00x--------0-0-00-0-00x--------0-0-00-0-00x--------|

"Are you ready to run?"
2.
G|----------------------------------|
D|----------------------------------|
A|----------------------------------|
D|-0~-------------------------------|

"Are you ready to run?"
3.
G|-------------------------------------------------------|
D|-------------------------------------------------------|
A|-------------------------------------------------------|
D|-0x--0x--0x-0x--0x--------0x--0x--0x-0x----8~-7~-5~-7~-|

Verse
"Please dont get up..."
4.
G|----------------------------------------------------------------------------------|
D|----------------------------------------------------------------------------------|
A|----------------------------------------------------------------------------------|
D|-0000x--00x--0000x--0000x-0x-8~-7~-5~-7~--0000x--00x--0000x--0000x-0x-8~-7~-5~-7~-|

"My sweet little sheep..."
5.
G|--------------------------------------------------------------------------------------|
D|--------------------------------------------------------------------------------------|
A|--------------------------------------------------------------------------------------|
D|-00000x--00x--0000x--00000x-0x-8~-7~-5~-7~--00000x--00x--0000x--00000x-0x-8~-7~-5~-7~-|

Pre-Chorus
"You should know Im dangerous..."
6.
G|--------------------------2h3p2-0---------------------------------|
D|----------------------------------3~--5~----5---------------------|
A|-1x--1x--3x----0x--0x--1x---------------------3~----0x--0x--5x----|
D|------------------------------------------------------------------|

Chorus
"Is this what we pictured..."
7.
G|-------------------------------------------------------------------------|
D|-------------------------------------------------------------------------|
A|----------------------------------1-0-0000000-00000-3-1-1111-5-3-3333333-|--x2
D|-00000000-00000-8-5-5555555-55555----------------------------------------|

Outro
"Annabel, look what you've started..."
8.
G|---------------------|
D|---------------------|
A|---------------------|
D|-0~--------0~--------|

Verse
"The knife slides down..."
9.
G|-------------------------------------------------------------------|
D|-------------------------3h5p3~-2h3p2~-----------------------------|
A|-------------------------------------------------------3~----0~----|--x2
D|-0x--0x--0x--0000-0x--0x----------------0x--0x--0x-000-------------|

Pre-Chorus
"You should know Im dangerous..."
10.
G|--------------------------2h3p2-0---------------------------------|
D|----------------------------------3~--5~----5---------------------|
A|-1x--1x--3x----0x--0x--1x---------------------3~----0x--0x--5x----|
D|------------------------------------------------------------------|

Chorus
"Is this what we pictured..."
11.
G|-------------------------------------------------------------------------|
D|-------------------------------------------------------------------------|
A|----------------------------------1-0-0000000-00000-3-1-1111-5-3-3333333-|--x2
D|-00000000-00000-8-5-5555555-55555----------------------------------------|

Outro
"Annabel, look what you've started..."
12.
G|---------------------|
D|---------------------|
A|---------------------|
D|-0~--------0~--------|

"Are you ready to run..."
13.
G|---------------------------------------------|
D|---------------------------------------------|
A|---------------------------------------------|
D|-0x----0x-00x----0000x----0x-00x---0~--------|

"Are you ready to run..."
14.
G|-------------------------------------------|
D|-------------------------------------------|
A|-------------------------------------------|
D|-0~----0-00~----0000~----0-00~---0~--------|

Bridge
"Will they scream..."
15.
G|---------------------------------------------------------------|
D|---------------------------------------------------------------|
A|---------------------------------------------------------------|
D|-0000x--000000x-00000x--000000x-0000x--000000x-00000x--000000x-|

"Will they beg..."
16.
G|---------------------------------------------------------------|
D|---------------------------------------------------------------|
A|---------------------------------------------------------------|
D|-0000x--000000x-00000x--000000x-0000x--000000x-00000x--0x------|

"Are you ready to die?"
17.
G|---------------------------------------------------------------|
D|---------------------------------------------------------------|
A|---------------------------------------------------------------|--x2
D|-0000x--000000x-00000x--000000x-0000x--000000x-00000x--000000x-|

"Im so glad that all of you came..."
18.
G|-----------------------------------------------------|
D|-----------------------7~-5~-3~-2~-0~----------------|
A|-----------------------------------------------------|
D|-0x--0x--0x-0x--0x--0x-------------------------------|

3:35
19.
G|-------------------------------------------------------------------------|
D|-------------------------------------------------------------------------|
A|-11111111-11111111-33333333-33333333-00000000-00000000-5555x----3333x----|
D|-------------------------------------------------------------------------|

"Looking in I see a lonely man..."
20.
G|----------------------------------------------------|
D|----------------------------------------------------|
A|-1~----1-1~-3~----3-3~-0~----0-0~-5555x----3333x----|
D|----------------------------------------------------|

Pre-Chorus
"Oh how blood turns me on..."
21.
G|-----------------------------|
D|-----------------------------|
A|-1x--1x--3x----0x--0x--5x----|
D|-----------------------------|

Chorus
"Is this what we pictured..."
22.
G|-------------------------------------------------------------------------|
D|-------------------------------------------------------------------------|
A|----------------------------------1-0-0000000-00000-3-1-1111-5-3-3333333-|--x2
D|-00000000-00000-8-5-5555555-55555----------------------------------------|

Outro
"Annabel, look what you've started..."
23.
G|------------------------|
D|------------------------|
A|------------------------|
D|-0~--------0~--------0x-|


Lyrics:

It is about time?
Oh yes it is, it really is!
Let's get this party started!
My hands are shaking
Just take a drink, steady your nerves.
Let's get this party started!

Are you ready to run?
I've been waiting patiently for this
Are you ready to die?
Cause lately it seems I'm going insane!

Please don't get up!
Oh no, you're fine right there!
Just don't mind me as I take you all in!
So drink 'em up, oh yes just slam 'em down!
Have one on me as I lock you all in!
My sweet little sheep your wolf has come

You should know I'm dangerous.
My thirst for blood turns me on
How sweet

Is this what we pictured the night that we said, "you're the one"?
I'm going crazy without you.
It's hard to believe but I'm having fun.

Annabel, look what you've started!

The knife slides down to the tip of my tongue.
I'm finding pleasure in watching you writhe.
I lean in just to lick the sweat off your face.
I taste the reverence dripping down my throat.

Are you ready to die?
There is definitely something wrong!
Will they scream? Will they cry?
Will they beg as they die or have to accept that this is the end?

Are you ready to die? 
I'm so glad that all of you came!
Looking in I see a lonely man etching tallies into the bar.
Looking on I see a desperate man repeating something on the floor.

_____________________________________________________________________

5.

+++++++++++++++++++++++++++++++++++
| Alesana- Hymn For The Shameless |
+++++++++++++++++++++++++++++++++++

"A love like this can never truly die..."

Tuning: Drop D (DADG)


Verse
"So now the show's over..."
1.
G|---------------------------------------------------------------------------------------------|
D|---------------------------------------------------------------------------------------------|
A|-------------------0~--1--------------1~-0~-------------------0~--1--------------1~-0~-5~-3~-|
D|-00-000-00-00-00-0-------00-000-00-00-------00-000-00-00-00-0-------00-000-00-00-------------|

Pre-Chorus
"Calm consumes me..."
2.
G|---------------------|
D|---------------------|
A|-1x--------3x--------|
D|---------------------|

Chorus
"I shut my eyes and once again..."
3.
G|-----------------------------------------------------------------------------------------|
D|-----------------------------------------------------------------------------------------|
A|-------------------0~----1~----------------5~----3~--------1~----0~----------------------|--x2
D|-0~--------------------------------------------------------------------0~----------------|

Verse
"I am the face of death..."
4.
G|-------------------------------------------------|
D|-------------------------------------------------|
A|-------------------------------------------------|
D|-------------------------------------------8-5-7-|

"Yet you're oblivious..."
5.
G|-------------------------------------------------|
D|-------------------------------------------------|
A|-------------------------------------------------|--x3
D|-0000-00000-0000-00000-0000-00000-0000-000-8-5-7-|

"I am the chosen one..."
6.
G|---------------------------------------------------|
D|---------------------------------------------------|
A|---------------------------------------------------|
D|-0000-00000-0000-00000-0000-00000-0000-000-8-5-7-5-|

Pre-Chorus
"Calm consumes me..."
7.
G|---------------------|
D|---------------------|
A|-1x--------3x--------|
D|---------------------|

Chorus
"I shut my eyes and once again..."
8.
G|-----------------------------------------------------------------------------------------|
D|-----------------------------------------------------------------------------------------|
A|-------------------0~----1~----------------5~----3~--------1~----0~----------------------|--x2
D|-0~--------------------------------------------------------------------0~----------------|

Bridge
"Saw your eyes today..."
9.
G|-------------------------------------------------------------------------------|
D|-------------------------------------3~-------------------------------2~-------|
A|-1~----------------------------------------1~----------------------------------|--x2
D|-------------------0~---------------------------------------0~-----------------|

Bass Solo
10.
G|-----------------------------------------------------------------------------|
D|-----------------------------------------------------------------------------|
A|-----------------------------------------------------------------------------|
D|-00-0-0-0-0-0-0h2-00-0-0-0-0-0x--------00-0-0-0-0-0-0h2-00-0-0-0-0-0x--------|

"Behold!!"
11.
G|-----------------------------------------------------------------------------|
D|-----------------------------------------------------------------------------|
A|-----------------------------------------------------------------------------|
D|-00-0-0-0-0-0-0h2-00-0-0-0-0-0x--------00-0-0-0-0-0-0h2-00-0-0-0-0-0x--------|

"Beg for the mercy..."
12.
G|-------------------------------------------------------------------------------------------|
D|-------------------------------------------------------------------------------------------|
A|-------------------------------------------------------------------------------------------|
D|-00x-0x-0x-0x-0x-0x-00x-00x-0x-0x-0x-0x-0x----00x-0x-0x-0x-0x-0x-00x-00x-0x-0x-0x-0x-0x----|

Pre-Chorus
"As relief washes over me..."
13.
G|--------------------------------------------------------------|
D|--------------------------------------------------------------|
A|-1~--------3~------------------0~---------1~--------3~--------|
D|---------------------0~---------------------------------------|

Chorus
"I shut my eyes and once again..."
14.
G|-----------------------------------------------------------------------------------------|
D|-----------------------------------------------------------------------------------------|
A|-------------------0~----1~----------------5~----3~--------1~----0~----------------------|
D|-0~--------------------------------------------------------------------0~----------------|

Play until it fades out

Lyrics:

Saw your eyes today in a memory painted in the sky.
You smiled and said to me, "a love like this can never truly die."

So now the show's over and I've got to disguise the thing I've become.
I only wish I could stop laughing!
I grin because the joke is on them this time!
They don't have a clue.

Calm consumes me.

(I immerse myself in sick reflection...)
I shut my eyes and once again the pleasure strangles me.
I taste the tears of sweet indulgence, pain and fantasy.
Oh, the visions inside my head...
The emptiness will haunt you...

(I immerse myself in sick reflection...)
Sanity is slowly slipping from my hands now.
I'm standing closer to the edge than I should be allowed.
Oh, what little regret I have...
Does that make me a killer?

I am the face of death standing right behind you.
Yet you're oblivious to my cold breath on your neck.
Is it just too easy?
Am I just too good at this?
I am the chosen one.
I am the end of all and now you are mine!

Let's just say you're right and the nightmare ends, we wake up side by side.
What makes you think that I would let you live?
I've really lost my mind...

Behold, for I am the will of the reaper!
Beg for the mercy of your worthless angels!

As relief washes over me, calm consumes me.

___________________________________________________________________________________

6.

+++++++++++++++++++++++++
| Alesana- The Thespian |
+++++++++++++++++++++++++


"Windows cast her gentle reflection..."

Tuning: Drop D (DADG)


Intro
"Night falls and Im running in circles..."
1.
G|-------------------------------------------------------------------------|
D|-------------------------------------------------------------------------|
A|-------------------00000000-00000000-11111111-11111111-33333333-33333333-|--x2
D|-00000000-00000000-------------------------------------------------------|

Verse
"Tell me Im forgiven..."
2.
G|----------------------------------------------------------|
D|----------------------------------------------------------|
A|----------------------11111111-11111111----------00000000-|
D|-0x-------0x-------0x-------------------33333333----------|

"Tell me Im forgiven..."
3.
G|---------------------------------------------------------------------------------|
D|---------------------------------------------------------------------------------|
A|-------------------------------------11111111-11111111----------00000000-0000000-|
D|-00000000-00000000-00000000-00000000-------------------33333333------------------|

Chorus
"I touch your lips..."
4.
G|---------------------------------------------------------------------------|
D|----------------------------2222-------------------------------------3h5p3-|
A|--------------------------------3333---------------------------------------|
D|-33333333-33333333-33333333----------00000000-00000000-00000000-0000-------|

"You are the reason my heart beats..."
5.
G|--------------------------------------------------------------------------|
D|--------------------------------------------------------------------------|
A|-11111111-11111111-11111111-11111111-33333333-33333333-33333333-3x---3x---|
D|--------------------------------------------------------------------------|

Outro
"Night as dark as my thoughts..."
6.
G|---------------------------------------------------------------------------------|
D|---------------------------------------------------------------------------------|
A|-----------------------11111111-00000000-----------------------11111111-00000000-|
D|-0x--0x--0x--0x--0x-0x-------------------0x--0x--0x--0x--0x-0x-------------------|

"Wearily I stagger..."
7.
G|---------------------------------------------------------------------------------|
D|-----------------------------------------333-222-000-----00-22-------------------|
A|-----------------------11111111-00000000-------------444-------11111111-00000000-|
D|-0x--0x--0x--0x--0x-0x-----------------------------------------------------------|

Verse
"Tell me Im forgiven..."
8.
G|----------------------------------------------------------|
D|----------------------------------------------------------|
A|----------------------11111111-11111111----------00000000-|
D|-0x-------0x-------0x-------------------33333333----------|

"Tell me Im forgiven..."
9.
G|---------------------------------------------------------------------------------|
D|---------------------------------------------------------------------------------|
A|-------------------------------------11111111-11111111----------00000000-0000000-|
D|-00000000-00000000-00000000-00000000-------------------33333333------------------|

Chorus
"I touch your lips..."
10.
G|---------------------------------------------------------------------------|
D|----------------------------2222-------------------------------------3h5p3-|
A|--------------------------------3333---------------------------------------|
D|-33333333-33333333-33333333----------00000000-00000000-00000000-0000-------|

"You are the reason my heart beats..."
11.
G|--------------------------------------------------------------------------|
D|--------------------------------------------------------------------------|
A|-11111111-11111111-11111111-11111111-33333333-33333333-33333333-3x---3x---|
D|--------------------------------------------------------------------------|

Outro
12.
G|---------------------------------------------------------------------------|
D|----------------------------2222-------------------------------------3h5p3-|
A|--------------------------------3333---------------------------------------|
D|-33333333-33333333-33333333----------00000000-00000000-00000000-0000-------|

13.
G|----------------------------------------------------------------|
D|----------------------------------------------------------------|
A|-11111111-11111111-11111111-11111111-33333333-33333333-33333333-|
D|----------------------------------------------------------------|

Bridge
"Windows cast her gentle reflection..."
14.
G|------------------------------------------------------------------------------|
D|-0~----------------7~--------10~--------12~---------------7~--------5~--------|
A|------------------------------------------------------------------------------|--x2
D|------------------------------------------------------------------------------|

"Look at you..."
15.
G|---------------------------------------------|
D|---------------------------------------------|
A|---------------------------------------------|--x2
D|-0x--------00x--------00x---------000000-0-0-|

"I've been expecting you..."
16.
G|---------------------------------------------|
D|---------------------------------------------|
A|---------------------------------------------|--x2
D|-0~--------00x---000000-0~--------000000-0-0-|

Outro
"Tonight I raise my glass
17.
G|---------------------------------------------------------|
D|---------------------------------------------------------|
A|---------------111111-111111---------------000000-000000-|--x3
D|-000000-000000---------------555555-555555---------------|

"I've lost my soul..."
18.
G|---------------------------------------------------------|
D|---------------------------------------------------------|
A|---------------111111-111111---------------0x------------|
D|-000000-000000---------------555555-555555---------------|

19.
G|----------------------------------|
D|----------------------------------|
A|----------------------------------|
D|-0~-------------------------------|


Lyrics:

(Baby) why are you doing this to me
(Sweetheart) Are those your eyes staring straight back at me
(Angel) I see your smile everywhere
(Darling, stop)

Night falls and I'm running in circles
I'm being chased by my imagination

Tell me I'm forgiven say you'll always be mine
Say that everything is over, tell me I'm fine
No one deserves to live like this!

I touch your lips and stare in your eyes
You smile and it makes me fly
You are the reason my heart beats
Tonight it's just you and me

Night as dark as my thoughts sets the scene for my return
Lightning nips at my heels as I race home
Wearily I stagger towards the song of her pale voice
Demons jeer my attempt to be free

Windows cast her gentle reflection
Her somber silhouette dances for me
Dear God, it's her

Look at you, you miserable fool
Get off your knees, your prayers fall upon deaf ears
Gods turned his back on you, heavens gates are shut
And now you're knocking on the devils door

Ive been expecting you for some time, sir
Allow me to introduce myself
I'm the one who pulls on all the strings, son
You're lucky I don't kill you where you stand

Tonight I raise my glass for I know its time to move on
(this can't be real. there's nothing left)
My patience will not last, tomorrow I will be gone
(all hope has failed. Ive lost my soul) 

_____________________________________________________________

7.

++++++++++++++++++++++++++++++++++++++
| Alesana- Heavy Hangs The Albatross |
++++++++++++++++++++++++++++++++++++++


"My heart belongs to the one I am chasing after..."

Tuning: Drop D (DADG)


Verse
"I've made up my mind..."
1.
G|---------------------------------------------------------------------|
D|---------------------------------------------------------------------|
A|---------------------------------2~----------------------------------|
D|----------------0~---------------------------------0~----------------|

"Women will shriek..."
2.
G|-------------------------------------------------------------------------|
D|-------------------------------------------------------------------------|
A|-22222222-22222222-22222222-22222222-------------------------------------|
D|-------------------------------------55555555-55555555-55555555-55555555-|

"Because tonight..."
3.
G|-------------------------------------------------------------------------|
D|-------------------------------------------------------------------------|
A|-00000000-00000000-00000000-00000000-------------------------------------|
D|-------------------------------------44444444-44444444-44444444-44444444-|

"I have to let go of..."
4.
G|-------------------------------------------------|
D|-------------------------------------------------|
A|-2~----2~----------------------------0~----2~----|
D|-------------0~----0~----5~----5~----------------|

Pre-Chorus
"There's nothing left for me to lose..."
5.
G|------------------------------------------------------------------------------|
D|------------------------------------------------------------------------------|
A|------------------0-0000000-0000000-2~-22220x---2~-222------2~-22220x---------|
D|-5-5555555-5555555------------------------------------55x-------------4444444-|

"There's no one left to talk me down..."
6.
G|---------------------------------------|
D|---------------------------------------|
A|------------------0-00000000~x---------|
D|-5-5555555-5555555---------------------|

Chorus
"One day oh I hope my name..."
7.
G|-------------------------------------------------------------------|
D|-------------------------------------------------------------------|
A|-2-2-2~--------------------------------------0--0-0~----1--1-1~----|--x2
D|---------------4--4-4~--------5--5-5~------------------------------|

Outro
"For better or even for worse..."
8.
G|----------------------------------------|
D|----------------------------------------|
A|-----------0~---------------------------|
D|-5~-----------------44444444-4444-4x-4x-|

Verse
"Now the only question left is how..."
9.
G|------------------------------------------------------------------------|
D|------------------------------------------------------------------------|
A|-22222222-22222222-------------------00000000-00000000------------------|
D|-------------------55555555-55555555-------------------44444444-4-4-4-4-|

"Dead will choke the streets..."
10.
G|------------------------------------------------------------------|
D|------------------------------------------------------------------|
A|-2-2-2-2-2-2-2-2-----------------0-0-0-0-0-0-0-0------------------|
D|-----------------5-5-5-5-5-5-5-5-----------------44444444-4444444-|

Pre-Chorus
"There's nothing left for me to lose..."
11.
G|------------------------------------------------------------------------------|
D|------------------------------------------------------------------------------|
A|------------------0-0000000-0000000-2~-22220x---2~-222------2~-22220x---------|
D|-5-5555555-5555555------------------------------------55x-------------4444444-|

"There's no one left to talk me down..."
12.
G|---------------------------------------|
D|---------------------------------------|
A|------------------0-00000000~x---------|
D|-5-5555555-5555555---------------------|

Chorus
"One day oh I hope my name..."
13.
G|-------------------------------------------------------------------|
D|-------------------------------------------------------------------|
A|-2-2-2~--------------------------------------0--0-0~----1--1-1~----|--x2
D|---------------4--4-4~--------5--5-5~------------------------------|

Outro
"For better or even for worse..."
14.
G|---------------------------------------|
D|---------------------------------------|
A|-----------0~--------------------------|
D|-5~------------------4~----------------|

Bridge
"The dizziness stuns me..."
15.
G|-------------------------------------------------------------------------|
D|-------------------------------------------------------------------------|
A|-------------------00000000-00000000-22222222-22222222-22222222-22222222-|
D|-55555555-55555555-------------------------------------------------------|

16.
G|-------------------------------------------------------------------------|
D|-------------------------------------------------------------------------|
A|-------------------00000000-00000000-22222222-22222222-22222222-2~-------|
D|-55555555-55555555-------------------------------------------------------|

Chorus
"One day oh I hope my name..."
17.
G|-------------------------------------------------------------------|
D|-------------------------------------------------------------------|
A|-2-2-2~--------------------------------------0--0-0~----1--1-1~----|--x2
D|---------------4--4-4~--------5--5-5~------------------------------|

Outro
"For better or even for worse..."
18.
G|----------------------------------------------------------|
D|----------------------------------------------------------|
A|-----------0~---------------------------2~----------------|
D|-5~------------------4~-----------------------------------|



Lyrics:

I've made up my mind and I will be leaving.
Leaving this cruel, dark world
for the soulless to share.
But first...

Women will shriek and watch their husbands bleed.
Child will cry 
and watch their mothers die.
Because tonight 
Tonight we all go to hell! Why?

I have to let go of what happened to my love.
I am taking out on everyone else
all the problems I've brought on myself.
When I made your heart melt.
My belle, we soon will meet again.

There's nothing left for me to lose
Except confusion.
I'm finished trying to tell myself this will go away.
There's no one left to talk me down.
My feet are slipping...

One day oh I hope my name doesn't bring back memories.
Of the day that I left her.
Goodbye, so long.
My heart belongs to the one I am chasing after.
For better, or even for worse,
Remember me forever...

Now the only question left is how
to take you all down with me.
The coroner will have his hands full tonight.
That is if he is not among the dead.

Dead will choke the streets with such vulgarity that grown men will weep.
And then you will find the end is drawing night.

The dizziness stuns me,
Would someone please distract me?
Can I really get through this?
Can I really betray myself?
For better, for worse, remember forever

(There's sweat on my hands and a knife at my throat.)
The dizziness stuns me,
Would someone please distract me?
(And as the blade bites my skin Annabel appears...)
Can I really get through this?
Can I really betray myself?
For better, for worse, remember forever
(For better, or for worse, remember me forever)

_____________________________________________________________

8.

++++++++++++++++++++++
| Alesana- The Lover |
++++++++++++++++++++++


"Just a scent of her skin unlocks forbidden memories..."

Tuning: Standard EADG


Verse
"Is it her? Could it be?"
1.
G|-----------------------------------------------------------------------------------------|
D|-----------------------------------------------------------------------------------------|
A|-222222-222222-----------------------------------------------------------0~------0~------|--x2
E|---------------333333-333333-000000-000000-222222-222222-3~------3~----------------------|

Pre-Chorus
"Dead girls dont just appear..."
2.
G|-------------------------------------------------------------------------------|
D|--------------------------------------------5---5~-------5~---------7--7~------|
A|-22x----22x----22x-22x----22x----22x----------5------------00x-------7---------|
E|-------------------------------------33x--------------33-----------------------|

Chorus
"Please dont hate me..."
3.
G|------------------------------------------------------------------------|
D|----------------------------2-0-0-2-------------------------------------|
A|------------------------------------22222222-22222222-22222222-22222222-|
E|-33333333-33333333-33333333---------------------------------------------|

"Such a pretty girl screams to me..."
4.
G|------------------------------------------------------------------------|
D|----------------------------2-0-0-2-------------------------------------|
A|------------------------------------00000000-00000000-00000000-00000000-|
E|-33333333-33333333-33333333---------------------------------------------|

Outro
"What if my heart breaks again..."
5.
G|------------------------------|
D|------------------------------|
A|-2x----2x----2x----2/9~-7~-5~-|
E|------------------------------|

Verse
"Just a scent of her skin..."
6.
G|-----------------------------------------------------------------------------------------|
D|-----------------------------------------------------------------------------------------|
A|-222222-222222-----------------------------------------------------------0~------0~------|
E|---------------333333-333333-000000-000000-222222-222222-3~------3~----------------------|

Pre-Chorus
"Dead girls dont just appear..."
7.
G|-------------------------------------------------------------------------------|
D|--------------------------------------------5---5~-------5~---------7--7~------|
A|-22x----22x----22x-22x----22x----22x----------5------------00x-------7---------|
E|-------------------------------------33x--------------33-----------------------|

Chorus
"Please dont hate me..."
8.
G|------------------------------------------------------------------------|
D|----------------------------2-0-0-2-------------------------------------|
A|------------------------------------22222222-22222222-22222222-22222222-|
E|-33333333-33333333-33333333---------------------------------------------|

"Such a pretty girl screams to me..."
9.
G|------------------------------------------------------------------------|
D|----------------------------2-0-0-2-------------------------------------|
A|------------------------------------00000000-00000000-00000000-00000000-|
E|-33333333-33333333-33333333---------------------------------------------|

Bridge
"I'll be your anchor..."
10.
G|-------------------------------------------------------------------|
D|----------------------------------------------------------4~-2~-0~-|
A|-------------------------------------22x----22x-22x----22----------|
E|-33333333-33333333-22222222-22222222-------------------------------|

"I'll be your anchor..."
11.
G|---------------------------------------------------------------------------------|
D|---------------------------------------------------------------------------------|
A|-------------------------------------22x----22x-22x----22x-22x----22x-22x----22x-|
E|-33333333-33333333-22222222-22222222---------------------------------------------|

Chorus
"Please dont hate me..."
12.
G|------------------------------------------------------------------------|
D|----------------------------2-0-0-2-------------------------------------|
A|------------------------------------22222222-22222222-22222222-22222222-|
E|-33333333-33333333-33333333---------------------------------------------|

"Such a pretty girl screams to me..."
13.
G|------------------------------------------------------------------------|
D|----------------------------2-0-0-2-------------------------------------|
A|------------------------------------00000000-00000000-00000000-00000000-|
E|-33333333-33333333-33333333---------------------------------------------|

Outro
"I'll never let you down..."
14.
G|----------------------------------------------------------------------|
D|--------------------------5h777-5h77----------------------------------|
A|--------------5h77-0-0000------------2-2222-22222-2222-2222-22--------|--x2
E|-3-3333-33333-------------------------------------------------222-222-|

"Angel..."
15.
G|-----------|
D|-----------|
A|-----------|
E|-3x--------|



Lyrics:

Is it her? Could it be? Should my eyes believe what they see?
If you are who I think you are
I might lose my mind.
Just a kiss from her lips
and I would simply float away.
The way her hips sway back and forth,
I've got butterflies.

Dead girls don't just appear out of thin air.
But I am victim to her sinister stare.

Please don't hate me for what I've done
Run away with me, I'll be everything that you need.
Such a pretty girl screams to me.
"Take my hand, take my breath away..."
What if my heart breaks again? 

Just a scent, of her skin
Unlocks forbidden memories.
The slightest gaze of fragile hand
I've got butterflies.

I'll be your anchor, I'll be your lover.
And then your heart is filled with doubt
I'll bear my soul to you belle!

I can't loose you again.
I'm nothing without you.
I'll never let you down,
Angel 

__________________________________________________________________________

9.

++++++++++++++++++++++++++++++++++++++++++++
| Alesana- In Her Tomb By The Sounding Sea |
++++++++++++++++++++++++++++++++++++++++++++


"Whisper softly and tell me that you love me..."

Tuning: Drop D (DADG)


Intro
"So Im thinking we should maybe..."
1.
G|----------------------------------------------------------------------|
D|----------------------------------------------------------------------|
A|--00x---------------000x---------------0------------------------------|
D|-5--------------------------------------33x---------------355x--------|

"I will save  your life..."
2.
G|--------------------------------------------------------------------------------|
D|--------------------------------------------------------------------------------|
A|--00x-000x-000x-000x-000x-000x-000x-000x-0--------------------------------------|
D|-5----------------------------------------33x-333x-333x-333x-355x-55555-5555555-|

Verse
"I can see its not the first time..."
3.
G|-----------------------------------------------------------------|
D|-----------------------------------------------------------------|
A|-----------------00------00----------------------00------00------|
D|-333x----555x------5x------5x----333x----555x------5x------5x----|

"You took her once, shame on you..."
4.
G|-----------------------------------------------------------------------|
D|-----------------------------------------------------------------------|
A|------------------0~-0-0-0----------------------------0~-0-0-0---------|
D|-3~-3-3-3-5-5-555----------5-5-5h7p5-3~-3-3-3-5-5-555----------2-2-222-|

Chorus
"Whisper softly..."
5.
G|-------------------------------------------------------------------|
D|-------------------------------------0~-0~-2~-2~-33333333-33335555-|
A|-33333333-33333333/88888888-88888888-------------------------------|
D|-------------------------------------------------------------------|

"Please forgive me..."
6.
G|-------------------------------------------------------------------------------------|
D|-------------------------------------------------------------------------------------|
A|-33333333-33333333-------------------------------------------------------------------|
D|-------------------33333333-33333333-0~-0~-2~-2~-3~-3~-5~-5~-0~-0~-2~-2~-3~-3~-5~-5~-|

Verse
"Do you realize its over..."
7.
G|-----------------------------------------------------------------|
D|-----------------------------------------------------------------|
A|-----------------00------00----------------------00------00------|
D|-333x----555x------5x------5x----333x----555x------5x------5x----|

"You took her once, shame on you..."
8.
G|-----------------------------------------------------------------------|
D|-----------------------------------------------------------------------|
A|------------------0~-0-0-0----------------------------0~-0-0-0---------|
D|-3~-3-3-3-5-5-555----------5-5-5h7p5-3~-3-3-3-5-5-555----------2-2-222-|

Chorus
"Whisper softly..."
9.
G|-------------------------------------------------------------------|
D|-------------------------------------0~-0~-2~-2~-33333333-33335555-|
A|-33333333-33333333/88888888-88888888-------------------------------|
D|-------------------------------------------------------------------|

"Please forgive me..."
10.
G|-------------------------------------------------------------------------------------|
D|-------------------------------------------------------------------------------------|
A|-33333333-33333333-------------------------------------------------------------------|
D|-------------------33333333-33333333-0~-0~-2~-2~-3~-3~-5~-5~-0~-0~-2~-2~-3~-3~-5~-5~-|

Outro
"Ive lost it all..."
11.
G|-----------------------------------------|
D|-----------------------------------------|
A|-0~--------------------------------------|
D|-----------5~--------2~--------3~--------|

Bridge
"You've ripped out my heart..."
12.
G|---------------------------------------------------------------------------------|
D|---------------------------------------------------------------------------------|
A|-000x-000x-000x-000x-------------------------------------------------------------|--x2
D|---------------------555x-555x-555x-555x-222x-222x-222x-222x-333x-333x-333x-333x-|

"If I have to go..."
13.
G|---------------------------------------------------------------------------------|
D|---------------------------------------------------------------------------------|
A|-000x-000x-000x-000x-------------------------------------------------------------|
D|---------------------555x-555x-555x-555x-222x-222x-222x-222x-333x-333x-3x--------|

Chorus
"Whisper softly..."
14.
G|-------------------------------------------------------------------|
D|-------------------------------------0~-0~-2~-2~-33333333-33335555-|
A|-33333333-33333333/88888888-88888888-------------------------------|
D|-------------------------------------------------------------------|

"Please forgive me..."
15.
G|-------------------------------------------------------------------------------------|
D|-------------------------------------------------------------------------------------|
A|-33333333-33333333-------------------------------------------------------------------|
D|-------------------33333333-33333333-0~-0~-2~-2~-3~-3~-5~-5~-0~-0~-2~-2~-3~-3~-5~-5~-|

Outro
"I've lost it all..."
16.
G|-------------------------------------------------------|
D|-------------------------------------------------------|
A|-------------------------------------------------------|
D|-0~--------2~--------3~--------------------------------|


Lyrics:

So I'm thinking we should maybe just run away from here.
With no plan of coming back.
We can stay away forever, our anguished love will be all we have.
And I will save your life.
It's happening again, it's happening again.
I won't watch you die.
It's happening again, it's happening again.

I can see it's not the first time you have come and taken her from me.
Rest assured it's not the last time, I'm going to set you free.
You took her once, shame on you.
You took her twice, shame on me.

Whisper softly and tell me you love me.
I'm losing you, I don't know what to do.
Please forgive me and know that I am sorry.
I'm losing you, I don't know what to do.
Trapped inside a memory, I'm falling apart.

Do you realize it's over?
There's no chance of leaving here alive.
You don't realize what you're saying, without me you can't survive.
You took her once, shame on you.
You took her twice, shame on me.

I'm falling apart, you've ripped out my heart.
I'm falling apart, I don't know where to start.
I don't want to go, it's happening again, it's happening again
But I can't let it show, I'll be with her again, together till the end.
If I have to go, it's happening again, it's happening again
I'll be damned if I'm alone, I'll be with her again.

I've lost it all.

_________________________________________________________________________

10.

+++++++++++++++++++++++++++++++++++
| Alesana- To Be Scared By An Owl |
+++++++++++++++++++++++++++++++++++


"I know I promised you the world..."

Tuning: Drop D (DADG)


Verse
"Look at the sky..."
1.
G|-----------------------------------------------------|
D|-----------------------------------------------------|
A|-------------333x--------111x--------000x----0000000-|--x2
D|-000x------------------------------------------------|

Pre-Chorus
"I'm scared to death..."
2.
G|------------------------------------------------------------------------|
D|------------------------------------------------------------------------|
A|-11111113-33333333-0000000-----------11111113-33333333-0000000----------|
D|--------------------------0-00000000--------------------------0x--------|

Chorus
"You know I used to search the sky..."
3.
G|-------------------------------------------------------------------------|
D|-------------------------------------------------------------------------|
A|-1111111-3-3333333-------------------1111111-3-3333333-------------------|--x2
D|-------------------0000000-0-0000000-------------------0000000-0-0000000-|

Verse
"Look in my eyes..."
4.
G|-------------------------------------------------|
D|-------------------------------------------------|
A|-------------333x--------111x--------000x--------|
D|-000x--------------------------------------------|

5.
G|---------------------------------------------------------------------------------|
D|---------------------------------------------------------------------------------|
A|-------------------------------------------------------------3x-33x-1x-11x-1x-0x-|--x2
D|-0x-00x-0x-00x-0x-0x-0x-00x-0x-00x-0x-0x-0x-00x-0x-00x-0x-0x---------------------|

Pre-Chorus
"I'm scared to death..."
6.
G|------------------------------------------------------------------------|
D|------------------------------------------------------------------------|
A|-11111113-33333333-0000000-----------11111113-33333333-0000000----------|
D|--------------------------0-00000000--------------------------0x--------|

Chorus
"You know I used to search the sky..."
7.
G|-------------------------------------------------------------------------|
D|-------------------------------------------------------------------------|
A|-1111111-3-3333333-------------------1111111-3-3333333-------------------|--x2
D|-------------------0000000-0-0000000-------------------0000000-0-0000000-|

Bridge
"You killed her, you murderer..."
8.
G|------------------------------------------------------------------------------------------|
D|------------------------------------------------------------------------------------------|
A|----------------------------------------------11111x--11111x-11111x-33333x--33333x-00000x-|--x2
D|-00000x--00000x-00000x-00000x--00000x-00000x----------------------------------------------|

Pre-Chorus
"I'm scared to death..."
9.
G|------------------------------------------------------------------------|
D|------------------------------------------------------------------------|
A|-11111113-33333333-0000000-----------11111113-33333333-0000000----------|
D|--------------------------0-00000000--------------------------0x--------|

Chorus
"You know I used to search the sky..."
10.
G|-------------------------------------------------------------------------|
D|-------------------------------------------------------------------------|
A|-1111111-3-3333333-------------------1111111-3-3333333-------------------|--x2
D|-------------------0000000-0-0000000-------------------0000000-0-0000000-|

Outro
"You'd better look behind you..."
11.
G|------------------|
D|------------------|
A|------------------|
D|-000x--------000x-|


Lyrics:

Look at the sky
As the night descends
The rain is crashing down,
I've hit another dead end
Just before I let hope slip away
A shadow is revealed, the devil shows his face

I'm scared to death and have myself to blame,
I'm to blame
How did we end up fighting anyway?

You know, I used to search the sky
And dream of where you were
I need you by my side,
We can end this together
I know I promised you the world
And still I let you down
I need you by my side
And together we'll end this now

Look in my eyes! Am I shaking now?
I am all you fear, have I made myself clear?

Shut your mouth and finish what you've started
Boy, you haven't got the slightest idea
Just who I am and what I do for you
Don't you see that I am trying to save you?
Shut your mouth and finish what you've started

As the last rays of sunlight fade,
One killer chases another
Through the tangled madness of the city
A flash of steel announces the presence of his quarry
The stage is set, the night explodes...

You killed her, you murderer
You have stripped me of the one that I love
Annabel, our Annabel
You have no clue what she's capable of...

You'd better look behind you...

_______________________________________________________________

11.

++++++++++++++++++++
| Alesana- Annabel |
++++++++++++++++++++


"I handed you a knife and my heart..."

Tuning: EADG

Intro
"How does the dagger feel now..."
1.
G|------------------------------------------------------------------------------|
D|------------------------------------------------------------------------------|
A|---------------------0-0-0~----0-0-0------------------------------------------|--x2
E|-1-1-1~----3-3-3~--------------------3-2-1-1-1~----3-3-3~----0-0-0~----0-0-0x-|

Verse
"How could I be so blind..."
2.
G|-----------------------------------------------------------------------------------------------|
D|-----------------------------------------------------------------------------------------------|
A|-00x----00x----000x---------------3h5p3-00x----00x----000x---------------3h5p3-----------------|
E|--------------------11x----33x-----------------------------11x----33x----------00000000-00000x-|

Chorus
"Imagine where you'd be know..."
3.
G|---------------------------------------------------------------------------|
D|---------------------------------------------------------------------------|
A|-00000000-00000000-33333333-33333333--------------0000---------------------|
E|-------------------------------------11111111-1111-----33333333-3333--44~--|

"I know now that I should have kept my eyes..."
4.
G|------------------------------------------------------------------------|
D|------------------------------------------------------------------------|
A|-00000000-00000000-33333333-33333333--------------0000------------------|
E|-------------------------------------11111111-1111-----33333333-3333333-|

Outro
"Just say to me..."
5.
G|---------------------------------------------------------------------------------|
D|---------------------------------------------------------------------------------|
A|-0~--------0~------------------3~--2~--0~--------0~------------------3-3-3-2-2-2-|
E|-----1-1~------1-1~--3~--0-0~--------------1-1~------1-1~--3~--0-0~--------------|

"Years spent watching in silence..."
6.
G|------------------------------------------------------------------------------|
D|------------------------------------------------------------------------------|
A|---------------------0-0-0~----0-0-0------------------------------------------|--x2
E|-1-1-1~----3-3-3~--------------------3-2-1-1-1~----3-3-3~----0-0-0~----0-0-0x-|

Verse
"How could I be so blind..."
7.
G|-----------------------------------------------------------------------------------------------|
D|-----------------------------------------------------------------------------------------------|
A|-00x----00x----000x---------------3h5p3-00x----00x----000x---------------3h5p3-----------------|
E|--------------------11x----33x-----------------------------11x----33x----------00000000-00000x-|

Chorus
"Imagine where you'd be know..."
8.
G|---------------------------------------------------------------------------|
D|---------------------------------------------------------------------------|
A|-00000000-00000000-33333333-33333333--------------0000---------------------|
E|-------------------------------------11111111-1111-----33333333-3333--44~--|

"I know now that I should have kept my eyes..."
9.
G|------------------------------------------------------------------------|
D|------------------------------------------------------------------------|
A|-00000000-00000000-33333333-33333333--------------0000------------------|
E|-------------------------------------11111111-1111-----33333333-3333333-|

Outro
"Just say to me..."
10.
G|------------------------------------------------------------------------------|
D|------------------------------------------------------------------------------|
A|-0~--------0~------------------3~--2~--0~--------0~------------------3~--2~---|
E|-----1-1~------1-1~--3~--0-0~--------------1-1~------1-1~--3~--0-0~-----------|

Bridge
"Oh, is it my fault..."
11.
G|----------------------------------------------2~--------5~------------2~--------7-5-3-----|
D|--------------------------------------5---------------------------3~-----3--5~--------3-5-|
A|-0~--------3~------------3~-------------5/7-5---------------------------------------------|
E|---------------------1~-----1~-1--3~------------------------------------------------------|

"Oh, should I blame you..."
12.
G|-2~----------5~--5h7p5~----2~----5~--------7----9~----5h7p5~-----2h5p2~------------------|
D|----3-3h5~---5~----------5-3~--3------5~-----5--7~--------5~---------3~----5h7p5~--------|
A|--------------------------------------5~---------------------------------------5~--------|
E|-----------------------------------------------------------------------------------------|

"Oh, is it my fault..."
13.
G|-------------------------------------------------------------------------------|
D|---------------------------------------------2/7~------------------------------|
A|-----------------------------------------------0-0-0-0-0-0-0-0-----------------|
E|---------------------------------------------------------------1-1-1-1-3-3-3-3-|

14.
G|---------------------------------------------------------------------------------|
D|---------------------------------------------------------------------------------|
A|-0~--------0~----------------------------0~--------0~----------------------------|
E|---------------------1~--------3~----------------------------1~--------3~--------|

"Die! Just die!"
15.
G|-------------------------------------------------------------|
D|-------------------------------------------------------------|
A|-0xx0xx0-000000-0xx0xx0-000000-------------------------------|--x2
E|-------------------------------1xx1xx1-111111-3xx3xx3-333333-|

"You are scum! You are filth..."
16.
G|-------------------------------------------------------------------------|
D|-------------------------------------------------------------------------|
A|-00000000-00000000-00000000-00000000-------------------------------------|
E|-------------------------------------11111111-11111111-33333333-33333333-|

"Choke on blood as your knife ends the show..."
17.
G|-----------------------------------------------------------------|
D|-----------------------------------------------------------------|
A|-0xx0xx0xx0xx0x0-0xx0xx0xx0xx0x0---------------------------------|
E|---------------------------------1xx1xx1xx1xx1x1-3xx3xx3xx3xx3x3-|

"I dont think they dig graves..."
18.
G|-----------------------------------------------------------------------------------------|
D|-----------------------------------------------------------------------------------------|
A|-0x----0x-0x----0~-------------------------0x----0x-0x----0~-----------------------------|
E|----------------------1x----1x-3x----4~-------------------------1x----1x-3x----4~--------|

Outro
"I handed you a knife and my heart..."
19.
G|-----------------------------------------------------------------|
D|-----------------------------------------------------------------|
A|-0-0-0-0-0-0-0-0-0-0-0-0-0-0-0-0---------------------------------|
E|---------------------------------3-3-3-3-3-3-3-3-3-3-3-3-3-3-3-3-|

"And now the dream is over..."
20.
G|-----------------------------------------------------------------|
D|-----------------------------------------------------------------|
A|-3-3-3-3-3-3-3-3-3-3-3-3-3-5-3-5---------------------------------|
E|---------------------------------1-1-1-1-1-1-1-1-1-1-1-1-1-1-1-1-|

"I handed you a knife and my heart..."
21.
G|-----------------------------------------------------------------|
D|-----------------------------------------------------------------|
A|-0-0-0-0-0-0-0-0-0-0-0-0-0-0-0-0---------------------------------|
E|---------------------------------3-3-3-3-3-3-3-3-3-3-3-3-3-3-3-3-|

"And now the dream is over..."
22.
G|-----------------------------------------------------------------|
D|-----------------------------------------------------------------|
A|-3-3-3-3-3-3-3-3-3-3-3-3-3-5-3-5---------------------------------|
E|---------------------------------1-1-1-1-1-1-1-1-1-1-1-1-1-1-1-1-|

Verse
"How could I be so blind..."
23.
G|-----------------------------------------------------------------------------------------------|
D|-----------------------------------------------------------------------------------------------|
A|-00x----00x----000x---------------3h5p3-00x----00x----000x---------------3h5p3-----------------|
E|--------------------11x----33x-----------------------------11x----33x----------00000000-00000x-|

Chorus
"Imagine where you'd be know..."
24.
G|---------------------------------------------------------------------------|
D|---------------------------------------------------------------------------|
A|-00000000-00000000-33333333-33333333--------------0000---------------------|
E|-------------------------------------11111111-1111-----33333333-3333--44~--|

"I know now that I should have kept my eyes..."
25.
G|------------------------------------------------------------------------|
D|------------------------------------------------------------------------|
A|-00000000-00000000-33333333-33333333--------------0000------------------|
E|-------------------------------------11111111-1111-----33333333-3333333-|

Outro
"I handed you a knife and my heart..."
26.
G|-----------------------------------------------------------------|
D|-----------------------------------------------------------------|
A|-0-0-0-0-0-0-0-0-0-0-0-0-0-0-0-0---------------------------------|
E|---------------------------------3-3-3-3-3-3-3-3-3-3-3-3-3-3-3-3-|

"And now the dream is over..."
27.
G|-----------------------------------------------------------------|
D|-----------------------------------------------------------------|
A|-3-3-3-3-3-3-3-3-3-3-3-3-3-5-3-5---------------------------------|
E|---------------------------------1-1-1-1-1-1-1-1-1-1-1-1-1-1-1-1-|

"I handed you a knife and my heart..."
28.
G|-----------------------------------------------------------------|
D|---------------------------2-0-----------------------------------|
A|-0-0-0-0-0-0-0-0-0-0-0-0-0-----3-------------------------3-3-5-7-|
E|---------------------------------3-3-3-3-3-3-3-3-3-3-3-3---------|

"And now the dream is over..."
29.
G|-----------------------------------------------------------------|
D|-------------------------0-2-0-5-------------------------0-2-3-5-|
A|-3-3-3-3-3-3-3-3-3-3-3-3-----------------------------------------|
E|---------------------------------1-1-1-1-1-1-1-1-1-1-1-1---------|

"I handed you a knife and my heart..."
30.
G|---------------------------------------------------------------------------------|
D|---------------------------------------------------------------------------------|
A|-0-0x------------------------------------3-3x------------------------------------|
E|---------------------3-3x------------------------------------1-1x----------------|

31.
G|-------------------------------------|
D|-------------------------------------|
A|-0~----------------------------------|
E|-------------------------------------|


Lyrics:

How does the dagger feel now when you're on the receiving end?
If this is what you call betrayal
Then this is what I call revenge

How could I be so blind?
I guess I fell in love too quickly...
But I'm fine.

Imagine where you'd be now if you only knew.
The one you love is the one who's killing you.
I trusted you too much.
I know now that I should have kept my eyes wide open.
The first time that we kissed.
I'll bury you for this.

Just say to me that this time is the last time.
And I'll pretend that somehow I know we'll be fine.

Years spent watching in silence as your illness spilled onto page.
Those were the last days I spend with you.
Before you left, before he came.

Just say to me that this time is the last time.
And I'll pretend I'm fine.

It is my fault?
You fell into that illusion you've been living discretely.
Should I blame you in the end?
Did you ever think the sketches would take over completely?

Die!
Just die!
You are scum!
You are filth!
Choke on blood as your knife ends the show! Writhe in pain you thought you'd never know!
I don't think they dig graves close enough to hell for the likes of you!

I handed you a knife and my heart, and now the dream is over...

______________________________________________________________________________________


I really hoped you enjoyed!!
Please rate, see you soon with other albums and stuff :D

RaiLeff


+++++++++++++++++++++++++++++++++
| RaiLeff                       |
| Underground__Dora@Hotmail.Com |
+++++++++++++++++++++++++++++++++
Suggest correction
Creating personal tab
Creating personal tab
You can edit any tab online and save it as your Personal.

You can edit, replace or remove any tab part or add personal notes – all changes will be seen only by you.

Personal tabs can be accessed anytime from any device, even offline.
Learn more »
comments
print report bad tab
3 comments total.
0 reply
Aizel_Carde 10 Sep 14, 2010 01:02 AM

awesome.. awesome :)

0 reply
tactical416 10 Sep 29, 2010 05:33 PM

very well done sir

0 reply
neiluj7 136 May 04, 2015 12:49 AM

Plain perfect!

guest
You may want to rate the tab now too:
select rating
Wanna post a correction for this tab? Suggest correction