Oops, an error
Loading. Please wait.

The Goddess Tab

22 views 1 this week
no commentswrite comment
1 2 3 4 5
3 more votes to show rating
add to favorites
launch autoscroll
font size
0
reset
how to read this tab
guitar tuner
Autoscroll
slow
fast
+/-
esc
set tempo
stop
Help us to improve Ultimate-Guitar.com Take our survey!
×
Author
Difficulty
Tuning
novice
C G C F A D
Song: The Goddess
Artist: Alesana
Album: Confessions (2015, track 4)
Tuning: Drop C (CGCFAD)

Thanks again to XSick DudeX for sending me the tabs. There are a couple of very well done covers on youtube if
a visual is needed. Particularly I'll point out Guitarfab557 's channel.

Intro (0:00)
D||--------------|-------------|--------------|--------------|--------------|
A||--------------|-------------|--------------|--------------|--------------|
F||--------------|-------------|--------------|--------------|--------------|
C||--------------|-(9----------|--------------|--------------|--------------|
G||-(12-0-9-0)x4-|----0-8-0)x4-|-(11-0-9-0)x4-|-(12-0-9-0)x2-|-(11-0-9-0)x2-|
C||--------------|-------------|--------------|--------------|--------------|

D|--------------------|-------------------|-----------------|-----------------|
A|--------------------|-------------------|-----------------|-----------------|
F|--------------------|-------------------|-----------------|-----------------|
C|--------------------|-------------------|-9-------9-----9-|-------9-----9---|
G|-12-0-9-0-12-9-0-12-|-0-9-0-12-9-0-12-9-|---0-8-0---8-0---|-0-8-0---8-0---8-|
C|--------------------|-------------------|-----------------|-----------------|
                                                                                   x2
D|--------------------|-------------------|--------------------|-------------------||
A|--------------------|-------------------|--------------------|-------------------||
F|--------------------|-------------------|--------------------|-------------------||
C|--------------------|-------------------|--------------------|-------------------||
G|-11-0-9-0-11-9-0-11-|-0-9-0-11-9-0-11-9-|-12-0-9-0-12-9-0-11-|-0-9-0-11-9-0-11-9-||
C|--------------------|-------------------|--------------------|-------------------||


Verse (0:38)
"My breath is slowly catching up..."
D|-----------------|-----------------|------------------|------------------|
A|-----------------|-----------------|------------------|------------------|
F|-----------------|-----------------|------------------|------------------|
C|-----7-------9---|-----7-------9---|-----9-------11---|-----9-------11---|
G|-5-5---5-5-5---5-|-5-5---5-5-5---5-|-7-7---7-7-7----7-|-7-7---7-7-7----7-|
C|-----------------|-----------------|------------------|------------------|

D|-------------------}-------------------|-------------------|-------------------|
A|-------------------|-------------------|-------------------|-------------------|
F|-------------------|-------------------|-------------------|-------------------|
C|-----11-------11---|-----11-------11---|-----12-------12---|-----11-------11---|
G|-8-8----8-8-8----8-|-8-8----8-8-8----8-|-9-9----9-9-9----9-|-8-8----8-8-8----8-|
C|-------------------|-------------------|-------------------|-------------------|

D|-----------------|-----------------|------------------|-------------------|-------------------|
A|-----------------|-----------------|------------------|-------------------|-------------------|
F|-----------------|-----------------|------------------|-------------------|-------------------|
C|-----7-----9-----|-7-----9-----9---|-----9-----11-----|-9-----11-----11---|-----11-----11-----|
G|-5-5---5-5---5-5-|---5-5---5-5---5-|-7-7---7-7----7-7-|---7-7----7-7----7-|-8-8----8-8----8-8-|
C|-----------------|-----------------|------------------|-------------------|-------------------|

D|--------------------|-------------------|--------------------|
A|--------------------|-------------------|--------------------|
F|--------------------|-------------------|--------------------|
C|-11-----11-----11---|-----12-----12-----|-11-----11-----11---|
G|----8-8----8-8----8-|-9-9----9-9----8-8-|----8-8----8-8----8-|
C|--------------------|-------------------|--------------------|


Prechorus (1:01)
“Did I lose myself?”                    x2| 1st ending                      |2nd ending.
D||------------|------------|------------||---------------------------------|-------------------------|
A||------------|------------|------------||---------------------------------|-------------------------|
F||------------|------------|------------||---------------------------------|-------------------------|
C||------------|------------|------------||---------------------------------|-------------------------|
G||-5-0-----0--|-5-0--------|-5-0-----5--||-5-0-5-0-5-0-7-0-7-0-7-0-8-0-8-0-|-5-0-5-0-5-0-7-0-7-0-7-0-|
C||-----5-3----|-----5-3-0--|-----5-3----||---------------------------------|-------------------------|


Chorus (1:10)
"I never wanna leave"
D|-------------5---|-----------------|-------------5---|-------------|-------------|-------------5--|
A|-5h6p5-----6---6-|-5h6p5-----------|-5h6p5-----6---6-|-5-5---------|-5-5---------|-5h6p5-----6--6-|
F|-------5-7-------|-------5-5---5/7-|-------5-7-------|-----5-5-----|-----5-5-----|-------5-7------|
C|-----------------|-----------7-----|-----------------|---------7-7-|---------7-7-|----------------|
G|-----------------|-----------------|-----------------|-------------|-------------|----------------|
C|-----------------|-----------------|-----------------|-------------|-------------|----------------|

                                               x2
D|------------------||-5-----5-----6---6---8---||-5----5-----------------|-5-----5-----6---6---8---|
A|-5h6p5------------||---6-6---6-6---6---6---6-||--6-6---6-6-8-6-6-8-6-6-|---6-6---6-6---6---6---6-|
F|-------5-5----5/7-||-------------------------||------------------------|-------------------------|
C|------------7-----||-------------------------||------------------------|-------------------------|
G|------------------||-------------------------||------------------------|-------------------------|
C|------------------||-------------------------||------------------------|-------------------------|


Breakdown/interlude (1:30)     x4
D||----------------------------||
A||----------------------------||
F||----------------------------||
C||----------------------------||
G||-0--0--0--0--0-0-0-0--0--0--||
C||-0--0--0--0--0-0-0-0--0--0--||
    .  .  .  .  . . . .  .  .


Verse 2 (1:37)
"Illusion is best..."
D|--------10----------10------------|----------------13-10-12-|----------------8-12-10-|
A|-/10--8----11-10--8----11---------|--------8-10-11----------|--------8-10-11---------|
F|--------------------------10-9-10-|-7-9-10------------------|-7-9-10-----------------|
C|----------------------------------|-------------------------|------------------------|
G|----------------------------------|-------------------------|------------------------|
C|----------------------------------|-------------------------|------------------------|

D|--------------------10-12-|----------------8-12-10-|
A|--------8-10-11--11-------|--------8-10-11---------|
F|-7-9-10-------------------|-7-9-10-----------------|
C|--------------------------|------------------------|
G|--------------------------|------------------------|
C|--------------------------|------------------------|


Prechorus 2 (1:51)
“Did I lose myself?”|"Am I just asleep"
D|------------------|---------------------------------|
A|------------------|---------------------------------|
F|------------------|---------------------------------|
C|------------------|---------------------------------|
G|------------------|-5-0-5-0-5-0-7-0-7-0-7-0-8-0-8-0-|
C|------------------|---------------------------------|

"Get up on your feet"
D||------------|------------|------------|-------------------------|
A||------------|------------|------------|-------------------------|
F||------------|------------|------------|-------------------------|
C||------------|------------|------------|-------------------------|
G||-5-0-----0--|-5-0--------|-5-0-----5--|-5-0-5-0-5-0-7-0-7-0-7-0-|
C||-----5-3----|-----5-3-0--|-----5-3----|-------------------------|


Chorus 2 (2:02)
"I never wanna leave"
D|-------------5---|-----------------|-------------5---|-------------|-------------|-------------5--|
A|-5h6p5-----6---6-|-5h6p5-----------|-5h6p5-----6---6-|-5-5---------|-5-5---------|-5h6p5-----6--6-|
F|-------5-7-------|-------5-5---5/7-|-------5-7-------|-----5-5-----|-----5-5-----|-------5-7------|
C|-----------------|-----------7-----|-----------------|---------7-7-|---------7-7-|----------------|
G|-----------------|-----------------|-----------------|-------------|-------------|----------------|
C|-----------------|-----------------|-----------------|-------------|-------------|----------------|

                     |                         x2                                                   |x2
D|------------------||-5-----5-----6---6---8---||-5----5-----------------|-5-----5-----6---6---8---||
A|-5h6p5------------||---6-6---6-6---6---6---6-||--6-6---6-6-8-6-6-8-6-6-|---6-6---6-6---6---6---6-||
F|-------5-5----5/7-||-------------------------||------------------------|-------------------------||
C|------------7-----||-------------------------||------------------------|-------------------------||
G|------------------||-------------------------||------------------------|-------------------------||
C|------------------||-------------------------||------------------------|-------------------------||


Bridge (2:28)
"........We choose the foolish"                 x4
D|-----||------------------------|--------------||
A|-----||-----/10-8--6-5--/10-/8-|-3-5-3--3-5-6-||
F|-----||-7h9--------------------|--------------||
C|-----||------------------------|--------------||
G|-----||------------------------|--------------||
C|-----||------------------------|--------------||


Breakdown 2 (3:13)
"...My shadow hides"          x12 (four times through before lyrics)
D||----------------------------||
A||----------------------------||
F||----------------------------||
C||----------------------------||
G||-0--0--0--0--0-0-0-0--0--0--||
C||-0--0--0--0--0-0-0-0--0--0--||
    .  .  .  .  . . . .  .  .

Bridge 2 (3:35)
"I can't stay here"
D|-------|-------|-------|-------|-------|-------|-------|-------|
A|-------|-------|-------|-------|-------|-------|-------|-------|
F|-------|-------|-------|-------|-------|-------|-------|-------|
C|-0-----|-2-----|-3-----|-5-----|-0-----|-2-----|-3-----|-5-----|
G|-0-x12-|-2-x12-|-3-x12-|-5-x12-|-0-x12-|-2-x12-|-3-x12-|-5-x12-|
C|-0-----|-2-----|-3-----|-5-----|-0-----|-2-----|-3-----|-5-----|


Interlude (3:50)
"I don't wanna leave"
D|-------------5---|-----------------|-------------|----|
A|-5h6p5-----6---6-|-5h6p5-----------|-5h6p5-----6-|----|
F|-------5-7-------|-------5-5---5/7-|-------5-7---|----|
C|-----------------|-----------7-----|-------------|----|
G|-----------------|-----------------|-------------|----|
C|-----------------|-----------------|-------------|----|


Repeat Chorus 2 (3:58)



Legend
.    palm mute
h    hammer on
p    pull off
/    slide up

Suggest correction
Give kudos to tab author, rate the tab!
1 2 3 4 5
comments
print report bad tab
guest
You may want to rate the tab now too:
select rating
Wanna post a correction for this tab? Suggest correction