Oops, an error
Loading. Please wait.

The Last Three Letters bass

by Alesana
3,995 views 1 this week
1 commentread comment
1 2 3 4 5
x 4
add to favorites
×
Save as Personal and add changes to this tab that will be seen only by you. Learn more ›
×
You can save this tab as Personal to edit and correct it or add notes. All changes will be seen only by you. Learn more »
launch autoscroll
font size
0
reset
guitar tuner
edit
Autoscroll
slow
fast
+/-
esc
set tempo
stop
Another great song by Alesana

Drop D (I bet its D)
If it doesnt work then pm me lolz

"Dearest love I hope.." x2
1.
|-----------------------------------------------|
|-----------------------------------------------|
|-3333333x-5555555x-----------------------------|
|-------------------00000x-00000x-00000x-00000x-|

"Every single word secretly.." x2
2.
|-----------------------------------------------|
|-----------------------------------------------|
|-3333333333335555555555557777777777777777777777|
|-----------------------------------------------|

"Eyes forfeit sight to.."
3.
|-------------------------------------------------|
|-------------------------------------------------|
|-7777-5555-7777-5-3-2-7777-5555-22-33-44-55-44-22|
|-------------------------------------------------|

4.
|-------------------------------------------------|
|-------------------------------------------------|
|-7777-5555-7777-5-3-2-7777-5555-7777-5x----------|
|-------------------------------------------------|

Chorus
"Where the last words.." x2
5.
|-------------------------------------------------------|
|-------------------------------------------------------|
|-3333333333333333-555555555555555---------7~--------7-5|
|----------------------------------00x-00x---00x-00x----|

"It's me agaiin..." *Really soft
6.
|-------------------------------------|
|-------------------------------------|
|-3333333333333333-5555555555555555---|
|-------------------------------------|

"Is it me, or am I wrong.."
7.
|-------------------------------------|
|-----------------------------5-4-----|
|-7--77-7-77--3-5--7--77-7-77---------|
|-------------------------------------|

"To be concerned.. With the beauty of your pen.."
8.
|-------------------------------------|
|-------------------------------------|
|-3333333333333333-5555555555555555---|
|-------------------------------------|

"Ever cross my eyes again.."
9.
|-------------------------------------|
|-----------------------------5-4-----|
|-7--77-7-77--3-5--7--77-7-77---------|
|-------------------------------------|

"Was this all a lie.." * Soft!
10.
|-------------------|
|-------------------|
|--3~---5~---7~-----|
|-------------------|

"WHYYY"
11.
|-------------------|
|-5555-4444-2222-4x-|
|-------------------|
|-------------------|

Chorus
"Were the last words..." x2
12.
|------------------------------------------------------|
|------------------------------------------------------|
|-3333333333333333-555555555555555--------7~--------7-5|
|----------------------------------00x-00x---00x-00x---|

This is the part were the 2 guys talk about
crazy stuff lol

13.
|------------------------------------------------------------|
|------------------------------------------------------------|
|-------3~-5~----------3~-5~----------3~-5~---------3~-5~----|
|-0~-------------0~-----------000000---------00000-----------|

"If my words even reach you.." x4
14.
|---------------------------|
|---------------------------|
|--------------33-3333x-----|
|-00000-00-000--------------|

Chorus
"Were the last words.." x2
15.
|------------------------------------------------------|
|------------------------------------------------------|
|-3333333333333333-555555555555555--------7~--------7-5|
|----------------------------------00x-00x---00x-00x---|

Outro.
16.
|-------------------------------------------------|
|-------------------------------------------------|
|-7777-5555-7777-5-3-2-7777-5555-22-33-44-55-44-22|
|-------------------------------------------------|

Thats it ^^
Please rateeeeee

GL!

Underground__Dora@hotmail.com

            
            
Suggest correction
Creating personal tab
Creating personal tab
You can edit any tab online and save it as your Personal.

You can edit, replace or remove any tab part or add personal notes – all changes will be seen only by you.

Personal tabs can be accessed anytime from any device, even offline.
Learn more »
comments
print report bad tab
1 comment total.
0 reply
cyclesurge0n 10 Nov 26, 2008 07:54 PM

Not bad for being a little unsure. just by looking at it during the song it looks pretty accurate.

guest
You may want to rate the tab now too:
select rating
Wanna post a correction for this tab? Suggest correction