Oops, an error
Loading. Please wait.

The Murderer tab

version 3
version 3

Whole song

Interactive

by Alesana
1,006 views 1 this week
no commentswrite comment
1 2 3 4 5
2 more votes to show rating
add to favorites
×
Save as Personal and add changes to this tab that will be seen only by you. Learn more ›
×
You can save this tab as Personal to edit and correct it or add notes. All changes will be seen only by you. Learn more »
launch autoscroll
font size
0
reset
how to read this tab
guitar tuner
edit
Autoscroll
slow
fast
+/-
esc
set tempo
stop
Gtr I
1:-----------------------------|
2:-----------------------------|
3:-10------12-----14------9----|
4:-x--x24--x--x8--x--x24--x-x8-|
5:-8-------10-----12------7----|x2
6:-----------------------------|

Gtr II
1:---------------------------|
2:---------------------------|
3:-7------9-----10------6----|  
4:-x-x24--x-x8--x--x24--x-x8-|
5:-5------7-----8-------4----|x2
6:---------------------------|

Gtr I
1:-------------|
2:-------------|
3:-------------|
4:-----7-------|
5:-7-8---8-7-8-|x2
6:-------------|

Gtr II
1:-------------|
2:-------------|
3:-----5-------|
4:-5-8---7-5-7-|
5:-------------|x3
6:-------------|

Gtr I
1:----------------------------------------------------------------|
2:----------------------------------------------------------------|
3:----------------------------------------------------------------|
4:--------------------------------------------------------7-------|
5:----------------------------------------------------7-8---8-7-8-|
6:-0-0-0-0-0--0-0-0-0-0--0-0-0-0-0-0-0-0-0--0-0-0-0-0-------------|
PM . . . . .  . . . . .  . . . . . . . . .  . . . . .

Gtr I & II
1:-----------------------------------------------------|
2:-----------------------------------------------------|
3:-----------------------------------------------------|
4:------------------------------------------8--7--5--7-|
5:------------------------------------------8--7--5--7-|
6:-0-0-0-0-0--0-0-0-0-0--0-0-0-0-0-0-0-0-0--8--7--5--7-|
PM . . . . .  . . . . .  . . . . . . . . .

Gtr I
1:-----------------------------------------------------|
2:-----------------------------------------------------|
3:-----------------------------------------------------|
4:------------------------------------------8--7--5--7-|
5:-0-0-0-0-0---000--0-0-0-0---0-0-0-0-0--0--8--7--5--7-|x2
6:-0-0-0-0-0---000--0-0-0-0---0-0-0-0-0--0--8--7--5--7-|
PM . . . . .   ...  . . . .   . . . . .  .

Gtr II
1:--------------------------------------------------------------|
2:--------------------------------------------------------------|
3:--------------------------------------------------------------|
4:-0-5-8-5-7-0-7-0-7-0-7-0-10-0-7-0-5-8-5-7-0-7-0-7--8--7--5--7-|
5:---------------------------------------------------8--7--5--7-|x2
6:---------------------------------------------------8--7--5--7-|

Gtr I & II
1:------------------|
2:------------------|
3:------------------|
4:-0-7-10-7-0-5-7-0-|
5:------------------|
6:------------------|

Gtr I
1:-----------------------------------------------------|
2:-----------------------------------------------------|
3:-----------------------------------------------------|
4:------------------------------------------8--7--5--7-|
5:-0-0-0-0-0---000--0-0-0-0---0-0-0-0-0--0--8--7--5--7-|x2
6:-0-0-0-0-0---000--0-0-0-0---0-0-0-0-0--0--8--7--5--7-|
PM . . . . .   ...  . . . .   . . . . .  .

Gtr II
1:--------------------------------------------------------------|
2:--------------------------------------------------------------|
3:--------------------------------------------------------------| 
4:-0-5-8-5-7-0-7-0-7-0-7-0-10-0-7-0-5-8-5-7-0-7-0-7--8--7--5--7-|
5:---------------------------------------------------8--7--5--7-|x2
6:---------------------------------------------------8--7--5--7-|

Gtr I
1:------------------|
2:------------------|
3:------------------|
4:-0-7-10-7-0-5-7-0-|
5:------------------|
6:------------------|

Gtr I & II
1:----------------------------------------------------| 
2:----------------------------------------------------|
3:----------------------------------------------------|
4:-8--8--10-----7--7--8-----8--8--10-----7--7--12-----|
5:-8--8--10-----7--7--8-----8--8--10-----7--7--12-----|
6:-8--8--10-----7--7--8-----8--8--10-----7--7--12-----|

Gtr I
1:--------------------------------------------------------------|
2:--------------------------------------------------------------|
3:-10------/14-10------/14-10-----9-----7-----5-----x-x-x-x-x-x-|
4:-x--x14--/x--x--x14--/x--x--x8--x-x4--x-x4--x-x10-x-x-x-x-x-x-|
5:-8-------/12-8-------/12-8------7-----5-----3-----x-x-x-x-x-x-|x2
6:--------------------------------------------------------------|

Gtr II
1:----------------------------------------------------|
2:----------------------------------------------------|
3:----------------------------------------------------|
4:-0------8-5------8-7------10-8----10-10-x-x-x-x-x-x-|
5:-0-x14--8-5-x14--8-7-x14--10-8-x8-10-10-x-x-x-x-x-x-|x2
6:-0------8-5------8-7------10-8----10-10-x-x-x-x-x-x-|

Gtr I
1:-1---1/6-5--1---1/6-5--|
2:-----------------------|
3:-----------------------|
4:-----------------------|
5:-----------------------|
6:-----------------------|

GtrII
1:---------------|
2:---------------|
3:---------------|
4:-0-0-------0-0-|
5:-0-0-------0-0-|
6:-0-0-------0-0-|

Gtr I
1:-------------------------------------------------------------------------------------------|
2:-------------------------------------------------------------------------------------------|
3:-------------------------------------------------------------------------------------------|
4:---------------------8h10p8~-7h8p7~---------------------------------------5h8-7~------------|
5:------------------------------------------------------7~--7h8p7--5~---5h8------------------|x2
6:-------------------------------------------------------------------------------------------|

Gtr II
1:--------------------------------------------------------------------------------------------|
2:--------------------------------------------------------------------------------------------|
3:--------------------------------------------------------------------------------------------|
4:-0--0--0-----------0----------------0--0--0-----------10--10-10-10-10-10-10-7--7-7-7-7-7-7--|
5:-0--0--0--0-0-0-0--0----------------0--0--0--0-0-0-0--10--10-10-10-10-10-10-7--7-7-7-7-7-7--|x2
6:-0--0--0--0-0-0-0--0----------------0--0--0--0-0-0-0--10--10-10-10-10-10-10-7--7-7-7-7-7-7--|
PM          . . . .                            . . . .

Gtr I & II
1:----------------------------------------------------|   
2:----------------------------------------------------|
3:----------------------------------------------------|
4:-8--8--10-----7--7--8-----8--8--10-----7--7--12-----|
5:-8--8--10-----7--7--8-----8--8--10-----7--7--12-----|
6:-8--8--10-----7--7--8-----8--8--10-----7--7--12-----|

Gtr I
1:--------------------------------------------------------------|
2:--------------------------------------------------------------|
3:-10------/14-10------/14-10-----9-----7-----5-----x-x-x-x-x-x-|
4:-x--x14--/x--x--x14--/x--x--x8--x-x4--x-x4--x-x10-x-x-x-x-x-x-|
5:-8-------/12-8-------/12-8------7-----5-----3-----x-x-x-x-x-x-|x2
6:--------------------------------------------------------------|

Gtr II
1:----------------------------------------------------|
2:----------------------------------------------------|
3:----------------------------------------------------|
4:-0------8-5------8-7------10-8----10-10-x-x-x-x-x-x-|
5:-0-x14--8-5-x14--8-7-x14--10-8-x8-10-10-x-x-x-x-x-x-|x2
6:-0------8-5------8-7------10-8----10-10-x-x-x-x-x-x-|

Gtr I
1:-1---1/6-5--1---1/6-5--|
2:-----------------------|
3:-----------------------|
4:-----------------------|
5:-----------------------|
6:-----------------------|

GtrII
1:---------------|
2:---------------|
3:---------------|
4:-0-0-------0-0-|
5:-0-0-------0-0-|
6:-0-0-------0-0-|

Gtr I
1:-------------------------------------------------------------------------|
2:-------------------------------------------------------------------------|
3:-------------------------------------------------------------------------|
4:--------------------------------7h10--------------------------------7h10-|
5:---------------------------7h10--------------------------------7h10------|
6:-0-8p7-0-8h10-0-8p7-0-7h10-----------0-8p7-0-8h10-0-8p7-0-7h10-----------|

Gtr II
1:-----------------------------------------|
2:-----------------------------------------|
3:-----------------------------------------|
4:-0--------0-----0-0------0-0-0-0---------|
5:-0--------0-----0-0------0-0-0-0---------|
6:-0--------0-----0-0------0-0-0-0---------|

Gtr I
1:-----------------------------------------------------------|
2:-----------------------------------------------------------|
3:-----------------------------------------------------------|
4:--------------------------------7h10--------------------0~-|
5:---------------------------7h10-------------------------0~-|x2
6:-0-8p7-0-8h10-0-8p7-0-7h10-----------0-8p7-0-8h10-0-8p7-0~-|

Gtr II
1:----------------------------|
2:----------------------------|
3:----------------------------|
4:-0--------0-----0-0------0~-|
5:-0--------0-----0-0------0~-|x2
6:-0--------0-----0-0------0~-|

Gtr I & II
1:---------------------------------|
2:---------------------------------|
3:---------------------------------|
4:---------------------------------|
5:-0-0-00-00-00-00-000-00-00-00-00-|x3
6:-0-0-00-00-00-00-000-00-00-00-00-|
PM . . .. .. .. .. ... .. .. .. ..

1:---------------------------|
2:---------------------------|
3:---------------------------|
4:---------------------------|
5:-0-0-00-00-00-00-000-00-00-|
6:-0-0-00-00-00-00-000-00-00-|
PM . . .. .. .. .. ... .. ..

Gtr I & II
1:---------------------------------|
2:---------------------------------|
3:---------------------------------|
4:-0-0-00-00-00-00-000-00-00-00-00-|
5:-0-0-00-00-00-00-000-00-00-00-00-|x4
6:-0-0-00-00-00-00-000-00-00-00-00-|

1:------------------|
2:------------------|
3:------------------|
4:-0--0--0--0--0--0-|
5:-0--0--0--0--0--0-|
6:-0--0--0--0--0--0-|

Gtr I
1:--------------------|
2:--------------------|
3:-10--9--7--5--7~~~~-|
4:-10--9--7--5--7~~~~-|
5:-8---7--5--3--5~~~~-|
6:--------------------|

Gtr II
1:--------------------------------------------------------------------------------------|
2:-------------10h11------15-17----17h18p17---------------------------------------------|
3:-------10h12-------14-17-----17\---------17-19-----17---------------------------------|
4:-10h12----------------------------------------19-17--19-17----------------------------|
5:----------------------------------------------------------20-20-19-19-17-17-15-15-17~-|
6:--------------------------------------------------------------------------------------|
PM                                                          ........................

Gtr I
1:--------------------------------------|
2:--------------------------------------|
3:--------------------------------------|
4:-8----------------------------10------|
5:-8-x16------------------------10-x16--|
6:-8----------------------------10------|
PM|.                            .      

Gtr II
1:-------------------------------------------------------------|
2:-10-0-10-0-11-0-11-0-13-0-13-0-11-0-11-0-13-0-13-0-15-0-15-0-|
3:-------------------------------------------------------------|
4:-------------------------------------------------------------|
5:-------------------------------------------------------------|
6:-------------------------------------------------------------|
PM ...........................................................

Gtr I
1:----------------------------------------|
2:----------------------------------------|
3:----------------------------------------|
4:-7--------------------12121212-10101010-|
5:-7-x16----------------12121212-10101010-|
6:-7--------------------12121212-10101010-|
PM|.

Gtr II
1:------------------------------------------|
2:-18-15-17-13-15-11-13-10-11-8-10-6-8-5-6*-|
3:------------------------------------------|
4:------------------------------------------|
5:------------------------------------------|
6:------------------------------------------|

Gtr I
1:--------------------------------------|
2:--------------------------------------|
3:--------------------------------------|
4:-8-----10-----7-----12121212-10101010-|
5:-8-x16-10-x16-7-x16-12121212-10101010-|x2
6:-8-----10-----7-----12121212-10101010-|

Gtr II
1:------------------------------------------------------------|
2:------------------------------------------------------------|
3:------------------------------------------10p9~-------10p7~-|
4:-7~-8~-7h8p7-------7h8p7------7~-8~-7h8p7-------7h8p7-------|
5:-------------8/10~-------8\5~-------------------------------|
6:------------------------------------------------------------|

1:------------------------------------------------------|
2:------------------------------------------------------|
3:------------------------------------------------------|
4:-77--------------8855---------------------------------|
5:---8855555555555-----777777777777-5/10-5/12-10-7-8~~~-|
6:------------------------------------------------------|

Gtr I & II
1:---------------------------|   
2:---------------------------|
3:---------------------------|
4:-8--8--10-----7--7--12-----|
5:-8--8--10-----7--7--12-----|
6:-8--8--10-----7--7--12-----|

Gtr I
1:--------------------------------------------------------------|
2:--------------------------------------------------------------|
3:-10------/14-10------/14-10-----9-----7-----5-----x-x-x-x-x-x-|
4:-x--x14--/x--x--x14--/x--x--x8--x-x4--x-x4--x-x10-x-x-x-x-x-x-|
5:-8-------/12-8-------/12-8------7-----5-----3-----x-x-x-x-x-x-|x2
6:--------------------------------------------------------------|

Gtr II
1:----------------------------------------------------|
2:----------------------------------------------------|
3:----------------------------------------------------|
4:-0------8-5------8-7------10-8----10-10-x-x-x-x-x-x-|
5:-0-x14--8-5-x14--8-7-x14--10-8-x8-10-10-x-x-x-x-x-x-|x2
6:-0------8-5------8-7------10-8----10-10-x-x-x-x-x-x-|

Gtr I
1:-1---1/6-5--1---1/6-5---|
2:------------------------|
3:------------------------|
4:----------------------0-|
5:----------------------0-|
6:----------------------0-|

Gtr II
1:------------------------|
2:------------------------|
3:------------------------|
4:-0-0--------0-0-------0-|
5:-0-0--------0-0-------0-|
6:-0-0--------0-0-------0-|

            
            
Suggest correction
Creating personal tab
Creating personal tab
You can edit any tab online and save it as your Personal.

You can edit, replace or remove any tab part or add personal notes – all changes will be seen only by you.

Personal tabs can be accessed anytime from any device, even offline.
Learn more »
Give kudos to tab author, rate the tab!
1 2 3 4 5
comments
print report bad tab
guest
You may want to rate the tab now too:
select rating
Wanna post a correction for this tab? Suggest correction