Oops, an error
Loading. Please wait.

The Thespian bass

version 1
version 1

Whole song

Interactive

by Alesana
9,813 views 3 this week
1 commentread comment
1 2 3 4 5
x 6
add to favorites
×
Save as Personal and add changes to this tab that will be seen only by you. Learn more ›
×
You can save this tab as Personal to edit and correct it or add notes. All changes will be seen only by you. Learn more »
launch autoscroll
font size
0
reset
guitar tuner
edit
Autoscroll
slow
fast
+/-
esc
set tempo
stop
Author
+++++++++++++++++++++++++
| Alesana- The Thespian |
+++++++++++++++++++++++++


"Windows cast her gentle reflection..."

Tuning: Drop D (DADG)


Intro
"Night falls and Im running in circles..."
1.
G|-------------------------------------------------------------------------|
D|-------------------------------------------------------------------------|
A|-------------------00000000-00000000-11111111-11111111-33333333-33333333-|--x2
D|-00000000-00000000-------------------------------------------------------|

Verse
"Tell me Im forgiven..."
2.
G|----------------------------------------------------------|
D|----------------------------------------------------------|
A|----------------------11111111-11111111----------00000000-|
D|-0x-------0x-------0x-------------------33333333----------|

"Tell me Im forgiven..."
3.
G|---------------------------------------------------------------------------------|
D|---------------------------------------------------------------------------------|
A|-------------------------------------11111111-11111111----------00000000-0000000-|
D|-00000000-00000000-00000000-00000000-------------------33333333------------------|

Chorus
"I touch your lips..."
4.
G|---------------------------------------------------------------------------|
D|----------------------------2222-------------------------------------3h5p3-|
A|--------------------------------3333---------------------------------------|
D|-33333333-33333333-33333333----------00000000-00000000-00000000-0000-------|

"You are the reason my heart beats..."
5.
G|--------------------------------------------------------------------------|
D|--------------------------------------------------------------------------|
A|-11111111-11111111-11111111-11111111-33333333-33333333-33333333-3x---3x---|
D|--------------------------------------------------------------------------|

Outro
"Night as dark as my thoughts..."
6.
G|---------------------------------------------------------------------------------|
D|---------------------------------------------------------------------------------|
A|-----------------------11111111-00000000-----------------------11111111-00000000-|
D|-0x--0x--0x--0x--0x-0x-------------------0x--0x--0x--0x--0x-0x-------------------|

"Wearily I stagger..."
7.
G|---------------------------------------------------------------------------------|
D|-----------------------------------------333-222-000-----00-22-------------------|
A|-----------------------11111111-00000000-------------444-------11111111-00000000-|
D|-0x--0x--0x--0x--0x-0x-----------------------------------------------------------|

Verse
"Tell me Im forgiven..."
8.
G|----------------------------------------------------------|
D|----------------------------------------------------------|
A|----------------------11111111-11111111----------00000000-|
D|-0x-------0x-------0x-------------------33333333----------|

"Tell me Im forgiven..."
9.
G|---------------------------------------------------------------------------------|
D|---------------------------------------------------------------------------------|
A|-------------------------------------11111111-11111111----------00000000-0000000-|
D|-00000000-00000000-00000000-00000000-------------------33333333------------------|

Chorus
"I touch your lips..."
10.
G|---------------------------------------------------------------------------|
D|----------------------------2222-------------------------------------3h5p3-|
A|--------------------------------3333---------------------------------------|
D|-33333333-33333333-33333333----------00000000-00000000-00000000-0000-------|

"You are the reason my heart beats..."
11.
G|--------------------------------------------------------------------------|
D|--------------------------------------------------------------------------|
A|-11111111-11111111-11111111-11111111-33333333-33333333-33333333-3x---3x---|
D|--------------------------------------------------------------------------|

Outro
12.
G|---------------------------------------------------------------------------|
D|----------------------------2222-------------------------------------3h5p3-|
A|--------------------------------3333---------------------------------------|
D|-33333333-33333333-33333333----------00000000-00000000-00000000-0000-------|

13.
G|----------------------------------------------------------------|
D|----------------------------------------------------------------|
A|-11111111-11111111-11111111-11111111-33333333-33333333-33333333-|
D|----------------------------------------------------------------|

Bridge
"Windows cast her gentle reflection..."
14.
G|------------------------------------------------------------------------------|
D|-0~----------------7~--------10~--------12~---------------7~--------5~--------|
A|------------------------------------------------------------------------------|--x2
D|------------------------------------------------------------------------------|

"Look at you..."
15.
G|---------------------------------------------|
D|---------------------------------------------|
A|---------------------------------------------|--x2
D|-0x--------00x--------00x---------000000-0-0-|

"I've been expecting you..."
16.
G|---------------------------------------------|
D|---------------------------------------------|
A|---------------------------------------------|--x2
D|-0~--------00x---000000-0~--------000000-0-0-|

Outro
"Tonight I raise my glass
17.
G|---------------------------------------------------------|
D|---------------------------------------------------------|
A|---------------111111-111111---------------000000-000000-|--x3
D|-000000-000000---------------555555-555555---------------|

"I've lost my soul..."
18.
G|---------------------------------------------------------|
D|---------------------------------------------------------|
A|---------------111111-111111---------------0x------------|
D|-000000-000000---------------555555-555555---------------|

19.
G|----------------------------------|
D|----------------------------------|
A|----------------------------------|
D|-0~-------------------------------|


Please rate!


Lyrics:

(Baby) why are you doing this to me
(Sweetheart) Are those your eyes staring straight back at me
(Angel) I see your smile everywhere
(Darling, stop)

Night falls and I'm running in circles
I'm being chased by my imagination

Tell me I'm forgiven say you'll always be mine
Say that everything is over, tell me I'm fine
No one deserves to live like this!

I touch your lips and stare in your eyes
You smile and it makes me fly
You are the reason my heart beats
Tonight it's just you and me

Night as dark as my thoughts sets the scene for my return
Lightning nips at my heels as I race home
Wearily I stagger towards the song of her pale voice
Demons jeer my attempt to be free

Windows cast her gentle reflection
Her somber silhouette dances for me
Dear God, it's her

Look at you, you miserable fool
Get off your knees, your prayers fall upon deaf ears
Gods turned his back on you, heavens gates are shut
And now you're knocking on the devils door

Ive been expecting you for some time, sir
Allow me to introduce myself
I'm the one who pulls on all the strings, son
You're lucky I don't kill you where you stand

Tonight I raise my glass for I know its time to move on
(this can't be real. there's nothing left)
My patience will not last, tomorrow I will be gone
(all hope has failed. Ive lost my soul) 



+++++++++++++++++++++++++++++++++
| RaiLeff                       |
| Underground__Dora@Hotmail.Com |
+++++++++++++++++++++++++++++++++

            
            
Suggest correction
Creating personal tab
Creating personal tab
You can edit any tab online and save it as your Personal.

You can edit, replace or remove any tab part or add personal notes – all changes will be seen only by you.

Personal tabs can be accessed anytime from any device, even offline.
Learn more »
comments
print report bad tab
1 comment total.
0 reply
JijixthexPanda 10 Nov 03, 2010 05:37 PM

Sounds good to me!

guest
You may want to rate the tab now too:
select rating
Wanna post a correction for this tab? Suggest correction