Oops, an error
Loading. Please wait.

The Thespian bass

version 2
version 2

Whole song

Interactive

by Alesana
1,136 views 3 this week
no commentswrite comment
1 2 3 4 5
3 more votes to show rating
add to favorites
×
Save as Personal and add changes to this tab that will be seen only by you. Learn more ›
×
You can save this tab as Personal to edit and correct it or add notes. All changes will be seen only by you. Learn more »
launch autoscroll
font size
0
reset
guitar tuner
edit
Autoscroll
slow
fast
+/-
esc
set tempo
stop
Artist:    Alesana
Song:      The Thespian
Album:     The Emptiness
Tabbed by: Untilwords@yahoo.com
Tunning:   Drop D



(night falls....)
g|----------------------------------------------------------------------------------------|
d|----------------------------------------------------------------------------------------|
a|----------------------------------------------------------------------------------------|
d|-0000000000000000--7777777777777777--8888888888888888--10101010101010101010101010101010-|  x2


(tell me im forgiven.....)
g|-----------------------------------------------|
d|-----------------------------------------------|
a|------------1111111111111111-------------------|
d|-0~----0~--------------------33333333/77777777-|


(tell me im forgiven)
g|----------------------------------------------------------|
d|----------------------------------------------------------|
a|------------1111111111111111------------------------------|
d|-0~----0~--------------------33333333/7777777777777777----|


(i touch your lips.......)
g|---------------------------------------------------------|
d|---------------------------------------------------------|
a|----------------------3/5-7-8-9--------------------------|
d|-33333333333333333333-----------000000000000000000000000-|


(You are the reason my heart beats...)
g|---------------------------------------------------------------------------|
d|---------------------------------------------------------------------------|
a|---------------------------------------------------------------------------|
d|-888888888888888888888888-101010101010101010101010101010101010101010101010-|

(Night as dark as my......)
g|-------------------------------------|
d|-------------------------------------|
a|-------------------------------------|
d|-0x-0x-0x-0x-0x0x--88888888-77777777-| x3


(Demons jeer my.....)
g|---------------------------------|
d|---------------------------------|
a|--8-7-5-4-5-7--------------------|
d|---------------88888888-77777777-|


(tell me im forgiven.....)
g|-----------------------------------------------|
d|-----------------------------------------------|
a|------------1111111111111111-------------------|
d|-0~----0~--------------------33333333/77777777-|


(tell me im forgiven......)
g|----------------------------------------------------------|
d|----------------------------------------------------------|
a|------------1111111111111111------------------------------|
d|-0~----0~--------------------33333333/7777777777777777----|


(i touch your lips.....)
g|---------------------------------------------------------|
d|---------------------------------------------------------|
a|----------------------3/5-7-8-9--------------------------|
d|-33333333333333333333-----------000000000000000000000000-|


(You are the reason my heart beats...)
G|---------------------------------------------------------------------------|
D|---------------------------------------------------------------------------|
A|---------------------------------------------------------------------------|
E|-888888888888888888888888-101010101010101010101010101010101010101010101010-|

Solo
(....)
g|-----------------------------------------------------------|
d|-----------------------------------------------------------|
a|----------------------3/5-3--------------------------------|
d|-33333333333333333333-------5-3---000000000000000000000000-|


(....)
G|---------------------------------------------------------------------------|
D|---------------------------------------------------------------------------|
A|---------------------------------------------------------------------------|
E|-888888888888888888888888-101010101010101010101010101010101010101010101010-|

(Windows cast her....) 
g|-----------------------------|
d|-----------------------------|
a|------0--0/3--3h5p3h5---1-0--|
d|-0~--------------------------|  x2


(Look at you, you miserable fool!...)
g|-------------------------------|
d|-------------------------------|
a|-------------------------------|
d|-0x----0-0x---0-0x---00000000--| x2


(I've been expecting you....)
g|-------------------------------|
d|-------------------------------|
a|-------------------------------|
d|-0x---0-0x--0-0000---00000000--| x2


(This cant be real...)
g|---------------------------------------|
d|---------------------------------------|
a|---------------------------------------|
d|--00000000-88888888-55555555-77777777--| x3


(Ive lost my soul.....)
g|--------------------------------------|
d|--------------------------------------|
a|--------------------------------------|
d|--00000000-88888888-555555555555--0~--|




| /  slide up
| \  slide down
| h  hammer-on
| p  pull-off
| ~  vibrato
| +  harmonic
| x  Mute note

            
            
Suggest correction
Creating personal tab
Creating personal tab
You can edit any tab online and save it as your Personal.

You can edit, replace or remove any tab part or add personal notes – all changes will be seen only by you.

Personal tabs can be accessed anytime from any device, even offline.
Learn more »
Give kudos to tab author, rate the tab!
1 2 3 4 5
comments
print report bad tab
guest
You may want to rate the tab now too:
select rating
Wanna post a correction for this tab? Suggest correction