Oops, an error
Loading. Please wait.

The Thespian Tab

version 2
version 2

Whole song

Interactive

14,446 views 6 this week
no commentswrite comment
1 2 3 4 5
x 6
add to favorites
launch autoscroll
font size
0
reset
how to read this tab
guitar tuner
Autoscroll
slow
fast
+/-
esc
set tempo
stop
Help us to improve Ultimate-Guitar.com Take our survey!
×
Author
Difficulty
Tuning
novice
D A D G B E
Artist:    Alesana
Song:      The Thespian
Album:     The Emptiness
Tabbed by: day_star149@yahoo.com
Tunning:   Dropped D


[INTRO]
e:----------------------------------------|
B:----------------------------------------|
G:--------101010 12---------12-12-12-14---|
D:---7777--x-x-x-x--7777----x--x--x--x----|
A:---5555--8-8-8-10-7777---10-10-10-12----|
D:------------------7777------------------|

e:--------------------------------------------------------|
B:--------------------------------------------------------|
G:--------141414 15-------------15-15-15-14-14-12-12-10---|
D:---8888--x-x-x-x--10101010----x--x--x--x--x--x--x--x----|
A:---8888-12121213--10101010---13-13-13-12--12-10-10-8----|
D:---8888-----------10101010------------------------------|

e:-----------------------------------------------| x2
B:-----------------------------------------------|
G:-----------------------------------------------|  (Listen to fret changes and strums)
D:---0--7--8--10---------------------------------|
A:---0--7--8--10---------------------------------|
D:---0--7--8--10---------------------------------|

[VERSE]

e:----------------------------------------------------------| x2
B:----------------------------------------------------------|
G:---------------------------14--12--10-9---10h12p10--------|
D:----7---------7---------7--------------------------10~~12~|
A:----5---------5---------5---------------------------------|
D:------0000000---0000000-----------------------------------|

[CHORUS]

e:-----------------------------------------------|
B:-----------------------------------------------|
G:-----------------------------------------------| (get strum and fret change by ear)
D:---3--0--8--10---------------------------------|
A:---3--0--8--10---------------------------------|
D:---3--0--8--10---------------------------------|


e:-----------------------------------------------| x4
B:-----------------------------------------------|
G:-----------------------------------------------|
D:----0--0--0--0--888-8x8---777--7x7-------------|
A:----0--0--0--0--888-8x8---777--7x7-------------|
D:----0--0--0--0--888-8x8---777--7x7-------------|


[VERSE AND CHORUS] 2nd time

[SOLO]

e|---------------------------------------------------------|
B|-----13-----------------------12/13----------------------|
G|-------14--12-12h14-12-10----------14----12-10-12-12/14--|
D|10/12----------------------------------------------------|
A|---------------------------------------------------------|
E|---------------------------------------------------------|

Trying to get the rest. So Chill

Do This Part 4 Times Then Slide
       [-----------------------------------------------|
e:-----------------------------------------------------|
B:-----------------------------------------------------|
G:-0h2h3 0h2h3 0h2h3------10-7-------------------------|
D:-----------------------------------------------------|
A:-----------------------------------------------------|
D:-----------------------------------------------------|

[OUTRO]

e:-----------------------------------------------| x4
B:-----------------------------------------------|
G:-----------------------------------------------|
D:----0--8--5--7---------------------------------|
A:----0--8--5--7---------------------------------|
D:----0--8--5--7---------------------------------|

[END]

e:------------------------------------------------|
B:------------------------------------------------|
G:------------------------------------------------|
D:----0--8--5--7--0-------------------------------|
A:----0--8--5--7--0-------------------------------|
D:----0--8--5--7--0-------------------------------|
Suggest correction
comments
print report bad tab
guest
You may want to rate the tab now too:
select rating
Wanna post a correction for this tab? Suggest correction