Oops, an error
Loading. Please wait.

This Conversation Is Over bass

version 1
version 1

Whole song

Interactive

by Alesana
4,016 views 1 this week
1 commentread comment
1 2 3 4 5
x 4
add to favorites
×
Save as Personal and add changes to this tab that will be seen only by you. Learn more ›
×
You can save this tab as Personal to edit and correct it or add notes. All changes will be seen only by you. Learn more »
launch autoscroll
font size
0
reset
guitar tuner
edit
Autoscroll
slow
fast
+/-
esc
set tempo
stop
Author
++++++++++++++++++++++++++++++++++++++
| Alesana- This Conversation Is OVer |
++++++++++++++++++++++++++++++++++++++

EADG

Intro
1.
G|-------------------------------------|
D|--------------4644--------------4644-|
A|-44444444-4444-----00000000-0000-----|
E|-------------------------------------|

2.
G|-----------------------------------|
D|-----------------------------------|
A|-22222222-22222222-----------------|
E|-------------------4444-4~-4444-4~-|

Verse
""
3.
G|-----------------------------------------------|
D|----------------------------------------464----|
A|-000x----222x----444--444--2x--444--444--------|
E|-------------------------------------------44x-|

4.
G|-------------------------------------------|
D|-------------------------------------------|
A|-000x----222x----444--444--2x--444--444----|
E|----------------------------------------4x-|

Chorus
"Take everything away from me.."
5.
G|-----------------------------------------------------------------------|
D|-----------------------------------------------------------------------|
A|-44444444-44444444-00000000-00000000-22222222-22222222-----------------|--x2
E|-------------------------------------------------------4444-4~-4444-4~-|

Bridge
""
6.
G|------------------------------------|
D|------------------------------------|
A|-44x--44x-------------00x--00x--22x-|--x2
E|-----------4x-444x-4x---------------|

Verse
""
7.
G|-----------------------------------------------|
D|----------------------------------------464----|
A|-000x----222x----444--444--2x--444--444--------|
E|-------------------------------------------44x-|

"The only eyes you look inside.."
8.
G|-------9-----------------------------------|
D|------7-7----------------------------------|
A|-000x-----222x---444--444--2x--444--444----|
E|----------------------------------------4x-|

Pre-Chorus
"This conversation is over.."
9.
G|----------------------------------------|
D|----------------------------------------|
A|-0~----2~----44-44-44-22x--44-44-44-----|
E|------------------------------------44x-|

Chorus
"Take everything away from me.."
10.
G|-----------------------------------------------------------------------|
D|-----------------------------------------------------------------------|
A|-44444444-44444444-00000000-00000000-22222222-22222222-----------------|--x2
E|-------------------------------------------------------4444-4~-4444-4~-|

Outro
11.
G|--------------------------------------------------------------------|
D|--------------------------------------------------------------------|
A|-0-0-0-0-0-0-0-0--2-2-2-2-2-2-2-2---------------------------------2-|
E|-----------------------------------4-4-4-4-4-4-4-4--4-4-4-4-4-4-4---|

"I cant seem to believe.."
12.
G|------------------------------------------------------------------------|
D|------------------------------------------------------------------------|
A|-0-0-0-0-0-0-0-00-2-2-2-2-2-2-2-02-4-4-4-4-4-4-4-4--4-4-4-4-4-4-4-4-4\1-|
E|------------------------------------------------------------------------|

"I cant seem to believe.."
13.
G|-----------------------------------------------------------------------------------|
D|-----------------------------------------------------------------------------------|
A|-00x-000x-000x-000x-022x-222x-222x-222x-2------------------------------------------|
E|-----------------------------------------44x-444x-444x-444x--444x-444x-444x-444x-4-|

"I cant seem to believe.."
14.
G|--------------------------------------------------------------------|
D|--------------------------------------------------------------------|
A|-00x-000x-000x-000x-022x-222x-222x-222x-244444444-44444444-44444444-|
E|--------------------------------------------------------------------|

Chorus
"Take everything away from me.."
15.
G|-----------------------------------------------------------------------|
D|-----------------------------------------------------------------------|
A|-44444444-44444444-00000000-00000000-22222222-22222222-----------------|--x2
E|-------------------------------------------------------4444-4~-4444-4~-|

++++++++++++++++++++++++++++++

Lyrics:

Take everything away from me silent angel...

Apathy cries out from your lungs, indifference reeks of fiction
Time will tell how far you will go
I can't see why you'd run and hide excluding such complacence
As tears rain from bloodshot eyes

Take everything away from me silent angel
Leave me nothing to remind me of this time now lost

The air now reeks with the presence of your vile voice
As your smile masks the advance you keep
...I am not your trophy...
The air now reeks with the presence of your vile voice
As your smile masks the advance you keep
...I am not your trophy...

Please try to say more carefully you no longer need me
This back and forth is killing me
The only eyes you'll look into are those in your reflection
You are the means of my end

This conversation is over, it's over...
Your truth is a deception meant to poison me

Take everything away from me silent angel
Leave me nothing to remind me of this time now lost

I can't seem to believe you ever cared for me
...This conversation is over...
Your empty words now drift away as fragile whispers
I saw the day when the fire left your eyes, your tongue fell still
Your treason is silence...
Take everything away from me silent angel
Leave me nothing to remind me of this time now lost

++++++++++++++++++++++++++++++++

+++++++++++++++++++++++++++++++++
| RaiLeff                       |
| Underground__Dora@hotmail.com |
+++++++++++++++++++++++++++++++++
Suggest correction
Creating personal tab
Creating personal tab
You can edit any tab online and save it as your Personal.

You can edit, replace or remove any tab part or add personal notes – all changes will be seen only by you.

Personal tabs can be accessed anytime from any device, even offline.
Learn more »
comments
print report bad tab
1 comment total.
0 reply
Gromlich 10 Feb 09, 2009 02:42 PM

no... :/

guest
You may want to rate the tab now too:
select rating
Wanna post a correction for this tab? Suggest correction