Oops, an error
Loading. Please wait.

This Conversation Is Over Tab

version 1
version 1

Whole song

Interactive

27,202 views 9 this week
10 commentsread comments
1 2 3 4 5
accurate
x 14
add to favorites
launch autoscroll
font size
0
reset
how to read this tab
guitar tuner
Tab Pro tools
  • play this tab
  • loop segment
  • change instrument
  • show fretboard
  • metronome
×
Best way to learn
"This Conversation Is Over"
Autoscroll
slow
fast
+/-
esc
set tempo
stop
Contributor
Difficulty
Tuning
intermediate
D A D G B E
ALESANA - THIS CONVERSATION IS OVER
WELL I GOT THIS TAB BY HEARING THE SONG I HOPE THIS TAB IS CORRECT, UNE THE GUITAR IN D# ^_^

INTRO
TAKE EVERYTHING AWAY...
|--------------------------------------------------------------------|
|--------------------------------------------------------------------|
|-7-7-7-7-7-7-7-7-------------------------------------------10-------|
|-7-7-7-7-7-7-7-7-8-8-8-8-8-8-8-8-10-10-10-10-10-10-10-10---10-------|
|-5-5-5-5-5-5-5-5-8-8-8-8-8-8-8-8-10-10-10-10-10-10-10-10---8--------|
|-----------------6-6-6-6-6-6-6-6-8--8--8--8--8--8--8--8-------------|
  . . . . . . . . . . . . . . . . .  .  .  .  .  .  .  .

|-------------------------------------------------------------------------|
|-------------------------------------------------------------------------|
|--10-0-9-0-10-0-9-0-10-0-9-0-10-0-9-10-0-12-0-10-12-0-10-0-12-0-10-0-12--|
|-------------------------------------------------------------------------|
|-------------------------------------------------------------------------|
|-------------------------------------------------------------------------|

|--------------------------------------------8----------------------------|
|------------------------------------10-8-10---10--10-8-------------------|
|--10-0-9-0-10-0-9-0-10-0-9-0-10-0-9--------------------10-9-10-----------|
|-------------------------------------------------------------------------|
|-------------------------------------------------------------------------|
|-------------------------------------------------------------------------|

VERSE
APHATY CRIES OUT FROM....
|------------------------------------------------------------| /
|------------------------------------------------------------| /
|--------9-10-12-10-9-10-9------------12-10-9-10-12-10-------| /
|--8-8-8---------------------10-10-10------------------------| /
|--8-8-8---------------------10-10-10------------------------| /
|--6-6-6---------------------8--8--8-------------------------| /
                                      .   . .  .  .  .         /
                                                               /   [x2]
|------------------------------------------------------------| /
|------------------------------------------------------------| /
|--7-7--7---7-7--7------------7-7--7---7-7--7----------------| /
|--7-7--7---7-7--7---10-------7-7--7---7-7--7---7------------| /
|--5-5--5---5-5--5---10-------5-5--5---5-5--5---7------------| /
|--------------------8--------------------------5------------| /
   . .      . .               . .      . .                     /

CHORUS
TAKE EVERYTHING AWAY .....
|-------------------------------------------------------------------------|
|-------------------------------------------------------------------------|
|--10-0-9-0-10-0-9-0-10-0-9-0-10-0-9-10-0-12-0-10-12-0-10-0-12-0-10-0-12--|
|-------------------------------------------------------------------------|
|-------------------------------------------------------------------------|
|-------------------------------------------------------------------------|

|--------------------------------------------8----------------------------|
|------------------------------------10-8-10---10--10-8-------------------|
|--10-0-9-0-10-0-9-0-10-0-9-0-10-0-9--------------------10-9-10-----------| 
|-------------------------------------------------------------------------|
|-------------------------------------------------------------------------|
|-------------------------------------------------------------------------|

|-------------------------------------------------------------------------|
|-------------------------------------------------------------------------|
|--10-0-9-0-10-0-9-0-10-0-9-0-10-0-9-10-0-12-0-10-12-0-10-0-12-0-10-0-12--|
|-------------------------------------------------------------------------|
|-------------------------------------------------------------------------|
|-------------------------------------------------------------------------|

|--------------------------------------------8----------------------------|
|------------------------------------10-8-10---10--10-8-------------------|
|--10-0-9-0-10-0-9-0-10-0-9-0-10-0-9--------------------10-9--------------|
|-------------------------------------------------------------------------|
|-------------------------------------------------------------------------|
|-------------------------------------------------------------------------|

VERSE 2
THE AIR "REEKS NOW"  WHIT THE.....
|------10-----------------------------------------------------------------|
|--------10-----10-8--------------------10-8------8------10-8-10-11-10-8--|
|--7-7------7-7---------------------------------10------------------------|
|--7-7------7-7------7---7-7-7--7----8-8-----8-8----10-10-----------------| [x2]
|--5-5------5-5------7---7-7-7--7----8-8-----8-8----10-10-----------------|
|--------------------5---5-5-5--5----6-6-----6-6----8--8------------------|
                         . . 

VERSE
PLEASE TRY TO SAY MORE.....
|------------------------------------------------------------| /
|------------------------------------------------------------| /
|--------9-10-12-10-9-10-9------------12-10-9-10-12-10-------| /
|--8-8-8---------------------10-10-10------------------------| /
|--8-8-8---------------------10-10-10------------------------| /
|--6-6-6---------------------8--8--8-------------------------| /
                                      .   . .  .  .  .         /
                                                               /   [x2]
|------------------------------------------------------------| /
|------------------------------------------------------------| /
|--7-7--7---7-7--7------------7-7--7---7-7--7----------------| /
|--7-7--7---7-7--7---10-------7-7--7---7-7--7---7------------| /
|--5-5--5---5-5--5---10-------5-5--5---5-5--5---7------------| /
|--------------------8--------------------------5------------| /
   . .      . .               . .      . .                     /

THIS CONVERSATION IS OVER!!!
|---------------------------------------------------------|
|---------------------------------------------------------|
|-----------------7-7-7-7-7-7-5-5-----7-7-7-7-7-7---------|
|--8------10------7-7-7-7-7-7-5-5-----7-7-7-7-7-7-8-8-----|
|--8------10------5-5-5-5-5-5-3-3-----5-5-5-5-5-5-8-8-----|
|--6------8---------------------------------------6-6-----|

CHORUS
TAKE EVERYTHING AWAY..  

BRIDGE
|--------------------------------------------------------------------| /
|--11--11--11--11--10--10--10--10--11--11--11--11--10--10--10--10----| /
|----10--10--10--10--10--10--10--10--10--10--10--10--10--10--10--10--| /
|--------------------------------------------------------------------| /
|--------------------------------------------------------------------| /
|--------------------------------------------------------------------| /
                                                                       /[x2]
|--------------------------------------------------------------------| /
|--13--11--10--13--11--10--11-----13--11--10--13--11--10--11---------| /
|----10--10--10--10--10--10--10-12--10--10--10--10--10--10--10-12----| /
|--------------------------------------------------------------------| /
|--------------------------------------------------------------------| /
|--------------------------------------------------------------------| /

|---------------------------------------------------------------------------|
|---------------------------------------------------------------------------|
|---------------------------------------------------------------------------|
|--8-8--8-8-8--8-8-8--8-8-8--10-10-10-10-10-10-10-10-10-7-7-7--7-7-7--7-7-7-|
|--8-8--8-8-8--8-8-8--8-8-8--10-10-10-10-10-10-10-10-10-7-7-7--7-7-7--7-7-7-|
|--6-6--6-6-6--6-6-6--6-6-6--8--8--8--8--8--8--8--8--8--5-5-5--5-5-5--5-5-5-|
   . .  . . .  . . .  . . .  .  .  .  .  .  .  .  .  .  . . .  . . .  . . . 

|---------------------------------------------------------------------------|
|---------------------------------------------------------------------------|
|-------------------------------------------------------7-7-7-7-7-7-7-7-7-7-|
|--8-8--8-8-8--8-8-8--8-8-8--10-10-10-10-10-10-10-10-10-7-7-7-7-7-7-7-7-7-7-|
|--8-8--8-8-8--8-8-8--8-8-8--10-10-10-10-10-10-10-10-10-5-5-5-5-5-5-5-5-5-5-|
|--6-6--6-6-6--6-6-6--6-6-6--8--8--8--8--8--8--8--8--8----------------------|
   . .  . . .  . . .  . . .  .  .  .  .  .  .  .  .  .  . . . . . . . . . . 


CHORUS
TAKE EVERYTHING AWAY FROM MEEEEEEE .......

AND THATS ALL, CHECK OUT HOW DOES IT SOUNDS AT:

http://www.youtube.com/watch?v=9iNdlvFFaPE

THANX          FREAKY WII ^_^!!!!!!
comments
print report bad tab
10 comments total. Showing first comments.
-1 reply
killeranto wrote on November 6 2006, 06:39 pm

anouther perfect tab

by the legend himself =]

thank you again so much

if you was a girl

i would have your babies =]

0 reply
toro87 wrote on November 9 2006, 02:08 pm

you are amazing do you have band? if you have maybe you coul put a video with all your band an plz try to play: nero's deacay

0 reply
Yo_Dude wrote on February 2 2007, 09:20 pm

is drop d# tuning all the strings sharp?

I want to post or [tab]
guest
You may want to rate the tab now too:
select rating
Please do not post tabs as comments. Select "correction" instead!