Oops, an error
Loading. Please wait.

This Conversation Is Over bass

version 2
version 2

Whole song

Interactive

by Alesana
2,779 views 3 this week
no commentswrite comment
1 2 3 4 5
x 4
add to favorites
×
Save as Personal and add changes to this tab that will be seen only by you. Learn more ›
×
You can save this tab as Personal to edit and correct it or add notes. All changes will be seen only by you. Learn more »
launch autoscroll
font size
0
reset
guitar tuner
edit
Autoscroll
slow
fast
+/-
esc
set tempo
stop
Author
Difficulty
this conversation is over - alesana

Tabbed by: Byron Andrada
Email: spank_ie05@yahoo.com

This is how our band play this song,please listen carefully
on the song coz its kinda tricky on the tempo part...
oist jet! eto na! baseline drive rules!!! ch33rs!!!

It's a good song! enjoi....

chorus1: take everything away....
G|------------------------------------------------|
D|------------------------------------------------|
A|--4444444444------------------------------------|
E|------------5555555555777777777774~-------------|

G|------------------------------------------------|
D|------------------------------------------------|
A|--444444449\-------/9---------------------------|
E|------------5555555--9777777744444-44444--------|

Verse1: apathy cries out from....
G|------------------------------------------------|
D|------------------------------------------------|
A|--------------------------------7h9p7-----------|
E|--555-777-4/9-999-999-7-999-999-------9p7-------|

G|------------------------------------------------|
D|------------------------------------------------|
A|------------------------------------------------|
E|--555-777-7p0-5h7/9-999-999-7-999-999-7---------|

chorus2: take everything away....
G|------------------------------------------------|
D|------------------------------------------------|
A|--444444449\-------/9---------------------------|
E|------------5555555--9777777744444-44444--------|

G|------------------------------------------------|
D|------------------------------------------------|
A|--44444444--/9-------/9-------------------------|
E|----------/9--5555555--9777777744444-44444------|

scream: the air now reeks with....
G|------------------------------------------------|
D|------------------------------------------------|
A|--44-44-----------------------------------------|
E|--------4-444-4-55-55-77------------------------|

G|------------------------------------------------|
D|------------------------------------------------|
A|--44-44-----------------------------------------|
E|--------4-444-4-55-55-77------------------------|

verse2: please try to say more...
G|------------------------------------------------|
D|------------------------------------------------|
A|------------------------2-444-444-2h4p2---------|
E|--5555-7777-2/9-999-999----------------4p2------|

G|------------------------------------------------|
D|------------------------------------------------|
A|--0000----------0h2-444-444-2-444-444-----------|
E|------5-7777-7\2----------------------4---------|

this conversation is over....
G|------------------------------------------------|
D|------------------------------------------------|
A|--------------------44-44-44--------------------|
E|--5~-7~-99-99-99-77----------44-----------------|

chorus3: take everything away....
G|-----------------------------------------------------|
D|-----------------------------------------------------|
A|--44444444---------/999999---------------------------|
E|----------/75555555-------77777777744444-44444-------|

G|---------------------------------------------------|
D|---------------------------------------------------|
A|--44444444--/9-------/9999-------------------------|
E|----------/9--5555555-----97777777744444-44444-----|

bridge: 
G|-----------------------------------------------------------|
D|-----------------------------------------------------------|
A|-----------------------------------------------------------|
E|--5-5-5-5-5-5-5-5-7-7-7-7-7-7-7-7-4-4-4-4-4-4-4-4-4-4-4----|

    i can't seem to believe...
G|-------------------------------------------------------------|
D|-------------------------------------------------------------|
A|----------------------------------4-4-4-4-4-4-4-4-4p2p0------|
E|--5-5-5-5-5-5-5-5-7-7-7-7-7-7-7-7-----------------------4----|

G|-----------------------------------------------------------------------|
D|-----------------------------------------------------------------------|
A|-----------------------------------------------------------------------|
E|--55-555-555-555-577-777-777-777-44-444-444-444-444-444-444-444--------|

G|---------------------------------------------------------|
D|---------------------------------------------------------|
A|---------------------------------------------------------|
E|--55-555-555-555-577-777-777-777-9999999999999999--------|

chorus4: take everything away....
G|------------------------------------------------|
D|------------------------------------------------|
A|--44444444---------/9---------------------------|
E|----------/75555555--9777777744444-44444--------|

G|------------------------------------------------|
D|------------------------------------------------|
A|--44444444----------22222222-4p2p0--------------|
E|----------7555555554--------------44444-4444----|


legend:
 / = slide up
 \ = slide down
 h = hammer
 p = pull-out


If you have some suggestions or comments,feel free to PM or email me at spank_ie05@yahoo.com   
                                                            /bon







            
            
Suggest correction
Creating personal tab
Creating personal tab
You can edit any tab online and save it as your Personal.

You can edit, replace or remove any tab part or add personal notes – all changes will be seen only by you.

Personal tabs can be accessed anytime from any device, even offline.
Learn more »
comments
print report bad tab
guest
You may want to rate the tab now too:
select rating
Wanna post a correction for this tab? Suggest correction