Oops, an error
Loading. Please wait.

This Conversation Is Over tab

version 2
version 2

Whole song

Interactive

by Alesana
3,582 views 3 this week
5 commentsread comments
1 2 3 4 5
2 more votes to show rating
add to favorites
×
Save as Personal and add changes to this tab that will be seen only by you. Learn more ›
×
You can save this tab as Personal to edit and correct it or add notes. All changes will be seen only by you. Learn more »
launch autoscroll
font size
0
reset
how to read this tab
guitar tuner
edit
Autoscroll
slow
fast
+/-
esc
set tempo
stop
Author
Difficulty
-------------------------------------------------------------------------------
                             This Conversation Is Over - Alesana
-------------------------------------------------------------------------------
Tabbed by: Pepster50    
Email: pepster50@hotmail.com

Tuning: Db,Ab,Db,Gb,Bb,Eb


Note: The other tab for this song has most of the things right, but some of it
is wrong ! 

Intro Part 1 :

1st Guitar (Distortion)
Eb|---------------------------------------------------------------------------|
Bb|---------------------------------------------------------------------------|
Gb|-7-------------------5-----------------------------------------------------|
Db|-7--x 16---8---------5--x 16---7-------------------------------------------|
Ab|-5---------8--x 16---3---------7-------------------------------------------|
Db|-----------8-------------------7-------------------------------------------|
    *         *         * 
2nd Guitar (Distortion)

Note: 2nd guitar starts off during the first chord change of the 1st guitar
(the 8 chord) but is very quiet, you repeat and get louder each time, your at 
full colume when you reach the last 10 with the slide!

Eb|---------------------------------------------------------------------------|
Bb|-----------10------------------10-----------\8-----------------------------|
Gb|--------------10-12-10--x 8------------------------------------------------|
Db|---------------------------------------------------------------------------|
Ab|---------------------------------------------------------------------------|
Db|---------------------------------------------------------------------------|

Intro Part 2 :

1st Guitar (Distortion) 
Eb|---------------------------------------------------------------------------|
Bb|-----------------------------------------------------------10---8----------|
Gb|-7-------------------14-15-15-15-14-14-14-14-15-15-15-15------0---0--x 4---|
Db|-7--x 16----8-8-8-8--------------------------------------------------------|
Ab|-5----------8-8-8-8--12-13-13-13-12-12-12-12-13-13-13-13-------------------|
Db|------------8-8-8-8--------------------------------------------------------|

Eb|---------8-----------------------------------------------------------------|
Bb|-10-8--------10-----10-8---------------------------------------------------|
Gb|------10-----------------9-9---12------------------------------------------|
Db|---------------------------------------------------------------------------|
Ab|---------------------------------------------------------------------------|
Db|---------------------------------------------------------------------------|


2nd Guitar (Distortion)
Eb|---------------------------------------------------------------------------|
Bb|-----------------------------------------------8---------------------------|
Gb|-10-0-9-0---10-0-12-0---10-0-9-0-------10-9--------10----10-9--------------|
Db|--------------------------------------------10----------------10-10---12---|
Ab|----x 4--------x 4---------x-4---------------------------------------------|
Db|---------------------------------------------------------------------------|

3rd Guitar (Distortion)
Eb|---------------------------------------------------------------------------|
Bb|---------------------------------------------------------------------------|
Gb|-7--------------------12---------------------------------------------------|
Db|-7--x 16---8----------10--x 16--------------7--7---------7--7--------------|
Ab|-5---------8--x 16----10----------------7-7-7--7-----7-7-7--7--------------|
Db|-----------8----------10----------------7-7-7--7-----7-7-7--7--------------|
                                           * *          * *
Verse Part 1 :

1st Guitar (Distortion)
Eb|--------------------------3------------------------------------------------|
Bb|----------5-6-5/6/8--6----6------------------5--6----6---------------------|
Gb|-------------------------------5-5-5-5----5----------5---------------------|
Db|-8-8-8-8-----------------------5-5-5-5-------------------------------------|
Ab|-8-8-8-8-----------------------3-3-3-3-------------------------------------|
Db|-8-8-8-8-------------------------------------------------------------------|
                                             *  *  *
2nd Guitar (Distortion)
Eb|---------------------------------------------------------------------------|
Bb|---------------------------------------------------------------------------|
Gb|-------------------------------5-5-5-5-------------------------------------|
Db|-8-8-8-8-----------------------5-5-5-5-------------------------------------|
Ab|-8-8-8-8-----------------------3-3-3-3-------------------------------------|
Db|-8-8-8-8-------------------------------------------------------------------|

Verse Part 2 :

1st Guitar (Distortion)
Eb|---------------------------------------------------------------------------|
Bb|---------------------------------------------------------------------------|
Gb|-7-7-7------7-7-7------5--------7-7-7------7-7-7---------------------------|
Db|-7-7-7------7-7-7------5--------7-7-7------7-7-7------7--------------------|
Ab|-5-5-5------5-5-5------3--------5-5-5------5-5-5------7--------------------|
Db|------------------------------------------------------7--------------------|
    * * *      * * *               * * *      * * *
2nd Guitar (Distortion)
Eb|--------------------8------------------------------8-----------------------|
Bb|-------5-8--------5----5-6-8----------5-8--------5----5-6-8----------------|
Gb|-7-7-7------7-7-7---------------7-7-7------7-7-7---------------------------|
Db|---------------------------------------------------------------------------|
Ab|---------------------------------------------------------------------------|
Db|---------------------------------------------------------------------------|
    * * *      * * *               * * *      * * *

Verse Part 3 :

Note : Verse Part 3 is basically the same as Verse Part 1 but the 2nd guitar 
harmonizes with the first guitar in the first part, and one small extra note
is put in on the second part of the first guitar.

1st Guitar (Distortion)
Eb|---------------------------------------------------------------------------|
Bb|----------5-6-5/6/8--6----6------------------5--6-8--6---------------------|
Gb|-------------------------------5-5-5-5----5----------5---------------------|
Db|-8-8-8-8-----------------------5-5-5-5-------------------------------------|
Ab|-8-8-8-8-----------------------3-3-3-3-------------------------------------|
Db|-8-8-8-8-------------------------------------------------------------------|
                                             *  *  * *
2nd Guitar (Distortion)
Eb|----------3-5-3/5/8--5----3------------------------------------------------|
Bb|---------------------------------------------------------------------------|
Gb|-------------------------------5-5-5-5-------------------------------------|
Db|-8-8-8-8-----------------------5-5-5-5-------------------------------------|
Ab|-8-8-8-8-----------------------3-3-3-3-------------------------------------|
Db|-8-8-8-8-------------------------------------------------------------------|

Verse Part 4 :

Note : Verse Part 4 is basically the same thing as Verse part 2, except the 
8 to 10 slide at the end of the 2nd guitar!

1st Guitar (Distortion)
Eb|---------------------------------------------------------------------------|
Bb|---------------------------------------------------------------------------|
Gb|-7-7-7------7-7-7------5--------7-7-7------7-7-7---------------------------|
Db|-7-7-7------7-7-7------5--------7-7-7------7-7-7------7--------------------|
Ab|-5-5-5------5-5-5------3--------5-5-5------5-5-5------7--------------------|
Db|------------------------------------------------------7--------------------|
    * * *      * * *               * * *      * * *
2nd Guitar (Distortion)
Eb|--------------------8------------------------------8--8/10-----------------|
Bb|-------5-8--------5----5-6-8----------5-8--------5-------------------------|
Gb|-7-7-7------7-7-7---------------7-7-7------7-7-7---------------------------|
Db|---------------------------------------------------------------------------|
Ab|---------------------------------------------------------------------------|
Db|---------------------------------------------------------------------------|
    * * *      * * *               * * *      * * *

Chorus 1 :

Note : Chorus 1 is basically the same thing as Intro Part 2 but you repeat it
and the second time there is a slightly different ending.

1st Guitar (Distortion)
Eb|---------------------------------------------------------------------------|
Bb|-----------------------------------------------------------10---8----------|
Gb|-7-------------------14-15-15-15-14-14-14-14-15-15-15-15------0---0--x 4---|
Db|-7--x 16----8-8-8-8--------------------------------------------------------| x 2 
Ab|-5----------8-8-8-8--12-13-13-13-12-12-12-12-13-13-13-13-------------------|
Db|------------8-8-8-8--------------------------------------------------------|
                                                                                 
Eb|---------8--------------------------|----------8----------------8----------|
Bb|-10-8--------10-----10-8------------|--10-8--------10-----10-8-------------|
Gb|------10-----------------9-9---12---|-------10-----------------9-----------|
Db|------------------------------------|--------------------------------------|
Ab|------------------------------------|--------------------------------------|
Db|------------------------------------|--------------------------------------|
          ^Do this first time^                ^Do this the second time^

2nd Guitar (Distortion)
Eb|---------------------------------------------------------------------------|
Bb|---------------------------------------------------------------------------|
Gb|-10-0-9-0---10-0-12-0---10-0-9-0-------------------------------------------|
Db|---------------------------------------------------------------------------| x 2 
Ab|----x 4--------x 4---------x-4---------------------------------------------|
Db|---------------------------------------------------------------------------|
                                               
Eb|------------------------------------|--------------------------------------|
Bb|---------8--------------------------|----------8------------------8--------|
Gb|-10-9-------10-----10-9-------------|--10-9--------10-----10-8-------------|
Db|------10----------------10-10---12--|-------10-----------------10----------|
Ab|------------------------------------|--------------------------------------|
Db|------------------------------------|--------------------------------------|
        ^Do this the first time^              ^Do this the second time^

3rd Guitar (Distortion)
Eb|---------------------------------------------------------------------------|
Bb|---------------------------------------------------------------------------|
Gb|-7--------------------12---------------------------------------------------|
Db|-7--x 16---8----------10--x 16---------------------------------------------| x 2
Ab|-5---------8--x 16----10---------------------------------------------------|
Db|-----------8----------10---------------------------------------------------| 
 
Eb|-----------------------------------|---------------------------------------|
Bb|-----------------------------------|---------------------------------------|
Gb|-----------------------------------|---------------------------------------|
Db|-----7--7--------7--7--------------|-------7--7---------7------------------|
Ab|-7-7-7--7----7-7-7--7--------------|---7-7-7--7-----7-7-7------------------|
Db|-7-7-7--7----7-7-7--7--------------|---7-7-7--7-----7-7-7------------------|
    * *         * *                       * *          * * 
    ^Do this the first time^              ^Do this the second time^


Pre Verse :

1st Guitar (Distortion)
Eb|-----8-5-----5-3------------------------5-3-------------5-3-5-6-5-3--------|
Bb|------------------------------------------------6-8------------------------|
Gb|-7-7-----7-7----------------------------------------5-5--------------------|
Db|-7-7-----7-7-----7---------7----7---8-8-----8-8-----5-5--------------------|
Ab|-5-5-----5-5-----7----7-7--7----7---8-8-----8-8-----3-3--------------------|
Db|-----------------7----7-7--7----7---8-8-----8-8----------------------------|
                         * * 
2nd Guitar (Distortion)
Eb|---------------------------------------------------------------------------|
Bb|-----10-8----6-8------------------------8-6-----5-6-----6-5-6-8-6-5--------|
Gb|-7-7-----7-7----------------------------------------5-5--------------------|
Db|-7-7-----7-7-----7---------7----7---8-8-----8-8-----5-5--------------------|
Ab|-5-5-----5-5-----7----7-7--7----7---8-8-----8-8-----3-3--------------------|
Db|-----------------7----7-7--7----7---8-8-----8-8----------------------------|
                         * *

Verse 2:


Repeat Verse Part 1 2 & 3 then play part 2 again instead of part 4!

 
Pre Chorus :

1st Guitar (Distortion)
Eb|---------------------------------------------------------------------------|
Bb|---------------------------------------------------------------------------|
Gb|--------5---------------7-7--7-7--7-7--5-5----7-7--7-7--7-7----------------|
Db|-8------5---------------7-7--7-7--7-7--5-5----7-7--7-7--7-7--8-8-----------|
Ab|-8------3---------------5-5--5-5--5-5--3-3----5-5--5-5--5-5--8-8-----------|
Db|-8-----------------------------------------------------------8-8-----------|

2nd Guitar (Distortion)
Eb|---------------------------------------------------------------------------|
Bb|--------------8---------1010-1010-1010--8-8---1010-1010--8-8-6-6-----------|
Gb|--------5----10---------1010-1010-1010-1010---1010-1010-1010-5-5-----------|
Db|-8------5------------------------------------------------------------------|
Ab|-8------3------------------------------------------------------------------|
Db|-8-------------------------------------------------------------------------|

Chorus 2 :

Note: Chorus 2 is basically the same thing as chorus 1, but again there is a 
slight difference in the ending to chorus 2.

1st Guitar (Distortion)
Eb|---------------------------------------------------------------------------|
Bb|-----------------------------------------------------------10---8----------|
Gb|-7-------------------14-15-15-15-14-14-14-14-15-15-15-15------0---0--x 4---|
Db|-7--x 16----8-8-8-8--------------------------------------------------------| x 2 
Ab|-5----------8-8-8-8--12-13-13-13-12-12-12-12-13-13-13-13-------------------|
Db|------------8-8-8-8--------------------------------------------------------|
                                                                                 
Eb|---------8--------------------------|----------8----------------8----------|
Bb|-10-8--------10-----10-8------------|--10-8--------10-----10-8----8--------|
Gb|------10-----------------9-9---12---|-------10-----------------9-----------|
Db|------------------------------------|--------------------------------------|
Ab|------------------------------------|--------------------------------------|
Db|------------------------------------|--------------------------------------|
          ^Do this first time^                ^Do this the second time^

2nd Guitar (Distortion)
Eb|---------------------------------------------------------------------------|
Bb|---------------------------------------------------------------------------|
Gb|-10-0-9-0---10-0-12-0---10-0-9-0-------------------------------------------|
Db|---------------------------------------------------------------------------| x 2 
Ab|----x 4--------x 4---------x-4---------------------------------------------|
Db|---------------------------------------------------------------------------|
                                               
Eb|------------------------------------|--------------------------------------|
Bb|---------8--------------------------|----------8------------------8--------|
Gb|-10-9-------10-----10-9-------------|--10-9--------10-----10-8------9------|
Db|------10----------------10-10---12--|-------10-----------------10----------|
Ab|------------------------------------|--------------------------------------|
Db|------------------------------------|--------------------------------------|
        ^Do this the first time^              ^Do this the second time^

3rd Guitar (Distortion)
Eb|---------------------------------------------------------------------------|
Bb|---------------------------------------------------------------------------|
Gb|-7--------------------12---------------------------------------------------|
Db|-7--x 16---8----------10--x 16----------7--7---------7--7------------------| x 2
Ab|-5---------8--x 16----10-----------7-7--7--7----7-7--7--7------------------|
Db|-----------8----------10-----------7-7--7--7----7-7--7--7------------------| 
                                      * *          * * 

Bridge :

1st Guitar (Clean)
Eb|---------------------------------------------------------------------------|
Bb|11--11--11--11--10--10--10--10--11--11--11--11--10--10--10--10-------------|
Gb|--10--10--10--10--10--10--10--10--10--10--10--10--10--10--10--10-----------|
Db|---------------------------------------------------------------------------|
Ab|---------------------------------------------------------------------------|
Db|---------------------------------------------------------------------------|
                                                                                x 4
Eb|---------------------------------------------------------------------------|
Bb|13--11--10--13--11--10--11--10--13--11--10--13--11--10--11--10-------------|
Gb|--10--10--10--10--10--10--10--10--10--10--10--10--10--10--10--10-----------|
Db|---------------------------------------------------------------------------|
Ab|---------------------------------------------------------------------------|
Db|---------------------------------------------------------------------------|

2nd Guitar (Distortion)

Note : Second guitar doesnt start until 1st guitar has played its part twice!

Eb|---------------------------------------------------------------------------|
Bb|---------------------------------------------------------------------------|
Gb|----------------------------5-5--5-5-5--5-5-5--5-5-5--5--------------------|
Db|8-8--8-8-8--8-8-8--8-8-8--8-5-5--5-5-5--5-5-5--5-5-5--5--------------------|
Ab|8-8--8-8-8--8-8-8--8-8-8--8-3-3--3-3-3--3-3-3--3-3-3--3--------------------|
Db|8-8--8-8-8--8-8-8--8-8-8--8------------------------------------------------|

Eb|---------------------------------------------------------------------------|
Bb|---------------------------------------------------------------------------|
Gb|---------------------------------------------------------------------------|
Db|7-7--7-7-7--7-7-7--7-7-7--7-7-7--7-7-7--7-7-7--7-7-7--7--------------------|
Ab|7-7--7-7-7--7-7-7--7-7-7--7-7-7--7-7-7--7-7-7--7-7-7--7--------------------|
Db|7-7--7-7-7--7-7-7--7-7-7--7-7-7--7-7-7--7-7-7--7-7-7--7--------------------|

Eb|---------------------------------------------------------------------------|
Bb|---------------------------------------------------------------------------|
Gb|----------------------------5-5--5-5-5--5-5-5--5-5-5--5---10---------------|
Db|8-8--8-8-8--8-8-8--8-8-8--8-5-5--5-5-5--5-5-5--5-5-5--5---10-x 25----------|
Ab|8-8--8-8-8--8-8-8--8-8-8--8-3-3--3-3-3--3-3-3--3-3-3--3---8----------------|
Db|8-8--8-8-8--8-8-8--8-8-8--8------------------------------------------------|
                                                             *
                                                          Note: Palmute the
                                                          first 16 notes, then
                                                          strum the last 9 with
                                                          heavy distortion!

Chorus 3 :

Chorus 3 is exactly the same as Chorus 1 !



The End!

I have a tabit version of this tab that has drums,vox,bass ect!
email me at pepster50@hotmail.com if you would like to hear it, or have any questions / complaints!
 

| /  slide up
| \  slide down
| h  hammer-on
| p  pull-off
| ~  vibrato
| +  harmonic
| x  Mute note
===============================================================================
Suggest correction
Creating personal tab
Creating personal tab
You can edit any tab online and save it as your Personal.

You can edit, replace or remove any tab part or add personal notes – all changes will be seen only by you.

Personal tabs can be accessed anytime from any device, even offline.
Learn more »
Give kudos to tab author, rate the tab!
1 2 3 4 5
comments
print report bad tab
5 comments total. Showing first comments.
0 reply
Gil310 372 Nov 13, 2007 08:08 PM

Sweeeeeeettttt.
:D
Havent tried it yet,But it looks good from looking at it.

0 reply
pepster50 31 Nov 14, 2007 02:33 PM

thx dude

0 reply
shadowsv3nom 10 Dec 13, 2007 01:36 PM

uhhhmmmm... how exactly do you tune to this tuning.... i got the drop d part.. but dont know how to tune to a flat....
yea kinda a beginner with tuning

guest
You may want to rate the tab now too:
select rating
Wanna post a correction for this tab? Suggest correction