Oops, an error
Loading. Please wait.

This Is Usually The Part Where People Scream tab

version 2
version 2

Whole song

Interactive

by Alesana
1,782 views 1 this week
no commentswrite comment
1 2 3 4 5
3 more votes to show rating
add to favorites
×
Save as Personal and add changes to this tab that will be seen only by you. Learn more ›
×
You can save this tab as Personal to edit and correct it or add notes. All changes will be seen only by you. Learn more »
launch autoscroll
font size
0
reset
how to read this tab
guitar tuner
edit
Autoscroll
slow
fast
+/-
esc
set tempo
stop
This is Usually the part where people scream tab
eto ung second part...este ung lead part...duh ung mga gnagawa ni patrick
days of tabbing: 4 days
murdoc_nicholls@yahoo.com
paki rate at intindihin OK! listen to the song very well...



Intro(mabilis...)
|------------------------------|
|------------------------------|X(12)ata...
|7-0-9-0-10-0-0-7-0-9-0-7-10-0-|
|------------------------------|
|------------------------------|
|------------------------------|


|--------------------|    |---------------------------|
|--------------------|    |---------------------------|
|--------------------|    |---------------------------|
|5-3--33----------3--|X3  |7-0-0-5-0-0-3-0-0-3-33-555-|
|----5---5-3-0-3-5--5|    |---------------------------|
|--------------------|    |---------------------------|

Verse(medyo mahihirapan kayo sa part na toh...hehe basta paki intindi nlang OK??)
|--------------------------------------------------------------------------|
|--------------------------------------------------------------------------|
|3--------------------------3--------------3--5-3----3---------------------|
|--5-3-5-5-0-3-5--0-3-5~-----5-3-5-5-0-3-5-------5~---5-3-5-5-0-3-5--0-3-5~|
|--------------------------------------------------------------------------|
|--------------------------------------------------------------------------|


bago mag chorus:
|------------------------------|
|-10---------------------------|
|---10-9-10------9------7-10-10|
|-------------10---7--10-------|
|------------------------------|
|------------------------------|


there's no guarantee....
|------------------------------------------------|
|--8-10---6-8---5-6--6-8--5-6-5--6--8--10-8-11-10|
|7------7-----7----7-----7-----------------------|X2
|------------------------------------------------|
|------------------------------------------------|
|------------------------------------------------|


Chorus Contd.(eto ung malupet na lead eh....)
|--13-----15------------13-----15---------|   |-----------------|
|15--15-13--13-15-13--15--15-13--13-15-13-|   |15--17-18--17-/20|
|-----------------------------------------|X3 |-----------------|
|-----------------------------------------|   |-----------------|
|-----------------------------------------|   |-----------------|
|-----------------------------------------|   |-----------------|

|--13-----15------------13-----15---------|   |-----------------|
|15--15-13--13-15-13--15--15-13--13-15-13-|   |15--17-18--17-/20|
|-----------------------------------------|X3 |-----------------|
|-----------------------------------------|   |-----------------|
|-----------------------------------------|   |-----------------|
|-----------------------------------------|   |-----------------|

ung pre verse etong part na toh....
|--------|
|--------|
|--------|
|12/---0\|X4
|--------|
|--------|


Verse 2:
|--------------------------------|
|--5---6-5--------5----6-5-------|
|7---7----------7---7-------5--7~|X4
|----------7~--------------------|
|--------------------------------|
|--------------------------------|

|------------|
|---5--6-5---|
|7----7------|(bago mag chorus isa lang toh....)
|----------7~|
|------------|
|------------|



Chorus
|------------------------------------------------|
|--8-10---6-8---5-6--6-8--5-6-5--6--8--10-8-11-10|
|7------7-----7----7-----7-----------------------|X2
|------------------------------------------------|
|------------------------------------------------|
|------------------------------------------------|


Lead na malupet...
|--13-----15------------13-----15---------|   |-----------------|
|15--15-13--13-15-13--15--15-13--13-15-13-|   |15--17-18--17-/20|
|-----------------------------------------|X3 |-----------------|
|-----------------------------------------|   |-----------------|
|-----------------------------------------|   |-----------------|
|-----------------------------------------|   |-----------------|


|--13-----15------------13-----15---------|   |-----------------|
|15--15-13--13-15-13--15--15-13--13-15-13-|   |15--17-18--17-/20|
|-----------------------------------------|X3 |-----------------|
|-----------------------------------------|   |-----------------|
|-----------------------------------------|   |-----------------|
|-----------------------------------------|   |-----------------|

Bridge:

|-----------------------------------------|
|-----------------------------------------|
|-----------------------------------------|
|-----------------------------------------|
|-----------------------------------------|PALM MUTED HA....
|0000-0000-0000000000--0000-0000-000000-0~|
 **** **** **********  **** **** ******


THIS IS THE PART WHERE YOU ARE SUPPOSED TO SCREAM!.....
|---------------------|
|----5----4---------7-|
|----8----7---------10|
|000---000---0000000--|X4
|000---000---0000000--|
|000---000---0000000--|

|------------------------------------------------------|
|------------------------------------------------------|
|-------8-~--------14~--------15~--12-12-12-12-12-12-15|
|000000-x-~-000000-x-~-000000--x~----------------------|
|000000-10~-000000-12~-000000-13~--10-10-10-10-10-10-13|
|000000-----000000-----000000--------------------------|
 ******     ******     ******



Final Chorus
|--13-----15------------13-----15---------|   |-----------------|
|15--15-13--13-15-13--15--15-13--13-15-13-|   |15--17-18--17-/20|
|-----------------------------------------|X3 |-----------------|
|-----------------------------------------|   |-----------------|
|-----------------------------------------|   |-----------------|
|-----------------------------------------|   |-----------------|

|--13-----15------------13-----15---------|   |-----------------|
|15--15-13--13-15-13--15--15-13--13-15-13-|   |15--17-18--17-/20|
|-----------------------------------------|X3 |-----------------|
|-----------------------------------------|   |-----------------|
|-----------------------------------------|   |-----------------|
|-----------------------------------------|   |-----------------|

|--13-----15------------13-----15----------------------------|
|15--15-13--13-15-13--15--15-13--13-15-13---15--17-18--17-/20|
|------------------------------------------------------------|
|------------------------------------------------------------|X2
|------------------------------------------------------------|
|------------------------------------------------------------|

ayan....medyo mahirap ng konti....
paki rate at comment???
hahaha....sana maintindihan nieo toh....
murdoc_nicholls@yahoo.com
YEAH ALESANA!!!

            
            
Suggest correction
Creating personal tab
Creating personal tab
You can edit any tab online and save it as your Personal.

You can edit, replace or remove any tab part or add personal notes – all changes will be seen only by you.

Personal tabs can be accessed anytime from any device, even offline.
Learn more »
Give kudos to tab author, rate the tab!
1 2 3 4 5
comments
print report bad tab
guest
Wanna post a correction for this tab? Suggest correction