Oops, an error
Loading. Please wait.

Tilting The Hourglass bass

version 1
version 1

Whole song

Interactive

by Alesana
6,213 views 1 this week
2 commentsread comments
1 2 3 4 5
x 6
add to favorites
×
Save as Personal and add changes to this tab that will be seen only by you. Learn more ›
×
You can save this tab as Personal to edit and correct it or add notes. All changes will be seen only by you. Learn more »
launch autoscroll
font size
0
reset
guitar tuner
edit
Autoscroll
slow
fast
+/-
esc
set tempo
stop
Author
+++++++++++++++++++++++++++++++++
| Alesana- Tilting The Hourglass|
+++++++++++++++++++++++++++++++++

Tuning: EADG

Intro.
1.
|--------------------|
|--------------------|
|--------------------|
|-55x--55x--11x--00x-|

2.
|--------------------------------------|
|--------------------------------------|
|--------------------------------------|
|-55x--55x--11x--00000000000000000000x-|

Verse
"But I'll never taste your lips.."
3.
|---------------------------------|
|---------------------------------|
|---------------------------------|
|-000-000-000-000-111-111-000-000-|

"As fate keeps me locked away.."
4.
|---------------------------------|
|---------------------------------|
|---------------------------------|
|-555-555-555-333-555-555-555-555-|

"I must close  my eyes.."
5.
|--------------------------------|
|--------------------------------|
|--------------------------------|
|-000-000-000-000-11111111-1x-0x-|

Pre-Chorus
"Emptiness has darkened my eyes.."
6.
|----------------|
|----------------|
|-0~-------------|
|-----3~--0~--1~-|

Chorus
"My iron eyes..."
7.
|------------------------------------------------------------------|
|------------------------------------------------------------------|
|-00000000000000002222222233333333---------------------------------|
|----------------------------------3333333333333333111111122222222-|

8.
|-----------------------|
|-----------------------|
|-33x---33x---33x---33x-|
|-----------------------|

9.
|---------------------------------|
|---------------------------------|
|---------------------------------|
|-0000000000000000111111111111111-|

Verse
"I see the fear growing.."
10.
|-----------------------------|
|-----------------------------|
|-----------------------------|
|------------------------555x-|

11.
|-------------------------------------------------------------|
|-------------------------------------------------------------|
|-------------------------------------------------------------|
|-333x-333x-333x-333x-000x-000x-000x-000x-111x-111x-111x-111x-|

"And when I'm gone.."
12.
|-----------------------------------------------------------------|
|-----------------------------------------------------------------|
|-----------------------------------------------------------------|
|-555555555555555555555555555555533333333333333333333333333333333-|

13.
|-----------------------------------------|
|-----------------------------------------|
|-----------------------------------------|
|-000x-000x-000x-000x-111x-111x-111x-111x-|

Pre-Chorus
"Emptiness has darkened my eyes.."
14.
|-------------------------------------------------------|
|--------------2-------------------------2~-------------|
|-00~-00~-00~---0---------------------------------------|
|----------------33~-33~-33~--00~-00~-00~---11~-11~-11~-|

"Emptiness has darkened my eyes.."
15.
|------------------------------------------------------------|
|------------------------------------------------------------|
|-00~-00~-00~---00-020---------------------------------------|
|----------------------33~-33~-33~--3353-531-00~-00~-00~--1~-|

16.
|--*12--Harmonic|
|---------------|
|---------------|
|---------------|

"My iron eyes.."
17.
|------------------------------------------------------------------|
|------------------------------------------------------------------|
|-00000000000000002222222233333333---------------------------------|
|----------------------------------3333333333333333111111133333333-|

18.
|-----------------------|
|-----------------------|
|-33x---33x---33x---33x-|
|-----------------------|

19.
|---------------------------------|
|---------------------------------|
|---------------------------------|
|-0000000000000000111111111111111-|

2:42
20.
|-----------------------------------------------------------------|
|-----------------------------------------------------------------|
|-----------------------------------------------------------------|
|-1~--000x--000x-000x-111x--111x-111x-55x-5x-55x-5x-55x-5x-55x-5x-|

21.
|-------------------------------------------------------------|
|-------------------------------------------------------------|
|-------------------------------------------------------------|
|-000x--000x-000x-111x--111x-111x-55x-5x-55x-5x-55x-5x-55x-5x-|

22.
|------------------------------------------------|
|------------------------------------------------|
|------------------------------------------------|
|-1-3-555x---1-3-555x---1-3-555x---1-3-555x---3x-|

"My iron eyes.."
23.
|------------------------------------------------------------------|
|------------------------------------------------------------------|
|-00000000000000002222222233333333---------------------------------|
|----------------------------------3333333333333333111111133333333-|

24.
|-----------------------|
|-----------------------|
|-33x---33x---33x---33x-|
|-----------------------|

25.
|-----------------------------------|
|-----------------------------------|
|-----------------------------------|
|-000000000000000011111111-1x-1x-1x-|

"My iron eyes.."
26.
|------------------------------------------------------------------|
|------------------------------------------------------------------|
|-00000000000000002222222233333333---------------------------------|
|----------------------------------3333333333333333111111133333333-|

27.
|-----------------------|
|-----------------------|
|-33x---33x---33x---33x-|
|-----------------------|

28.
|-----------------------------------|
|-----------------------------------|
|-----------------------------------|
|-000000000000000011111111-1x-1x-1x-|

Finishes with:
29.
|-----------------------|
|-----------------------|
|-----------------------|
|--555x-555x-555x--555x-|

Lyrics:

You take my breathe away...
but I'll never taste your lips
as fate keeps me locked away
I must close my eyes to see your face

Emptiness has darkened my eyes
as I hopelessly bed for my life to end
...tell me why...
my iron eyes tell the tale
heroes always pay in their blood
I can be only this

I see the fear growing in their lost eyes
my purpose is so clear...I am the ax
I am the ax and this is why I must not fear the end
and when I'm gone will you forget me?
pen wears its steady course across the page
resigned to it's designs to take the hive

Emptiness has darkened my eyes
as I hopelessly bed for my life to end
...tell me why...
I wish I could make you see, I wish I could make you see through the pain
through the end, I wish I could make you see the greater purpose that I have to serve...
no one else will fight...no-one else will fight...so I must
my iron eyes tell the tale
heroes always pay in their blood
I can be only this

I see the fear growing in there...

+++++++++++++++++++++++++++++++
|RaiLeff                      |
|Underground__Dora@Hotmail.Com|
+++++++++++++++++++++++++++++++

            
            
Suggest correction
Creating personal tab
Creating personal tab
You can edit any tab online and save it as your Personal.

You can edit, replace or remove any tab part or add personal notes – all changes will be seen only by you.

Personal tabs can be accessed anytime from any device, even offline.
Learn more »
comments
print report bad tab
2 comments total.
0 reply
anticsbasslover 10 Jun 29, 2007 12:14 PM

6 is wrong. its open on the A string. then 3rd fret on the E string. then open E string. then first fret on E string. 22 is wrong too. its 1-3-then 5 and slide down to 1. dont play the 5 3 times. the part right before it is wrong too. its 000-000-000-111-5-5555x

0 reply
RaiLeff 12,922 Jun 30, 2007 12:33 PM

"Emptyness has darkened my eyes..."
6.
G|---------|
D|---------|
A|-0-------| Like that? Thanx
E|---3-0-1-|

guest
You may want to rate the tab now too:
select rating
Wanna post a correction for this tab? Suggest correction