Oops, an error
Loading. Please wait.

Tilting The Hourglass Tab

version 2
version 2

Whole song

Interactive

25,616 views 3 this week
14 commentsread comments
1 2 3 4 5
accurate
x 15
add to favorites
launch autoscroll
font size
0
reset
how to read this tab
guitar tuner
Tab Pro tools
  • play this tab
  • loop segment
  • change instrument
  • show fretboard
  • metronome
×
Best way to learn
"Tilting The Hourglass"
Autoscroll
slow
fast
+/-
esc
set tempo
stop
Contributor
Difficulty
Tuning
intermediate
D A D G B E
ALESANA - TILTING THE HOURGLASS
ITS A GOOD SONG AND THIS IS THE WAY THAT I PLAY THE SONG, I COMBINE THE TWO GUITARS AND  
THE GUITAR IN DROP D# ^_^

INTRO
|-----------------------------------------------|
|-----------------------------------------------|
|-------10-10-10-10-10-10------10-10-8-8-8-8----|
|--8-8--X--X--X--X--X--X--8-8--X--X--X-X-X-X----|
|--8-8--8--8--8--8--8--8--8-8--8--8--6-6-6-6----|
|--6-6--------------------6-6-------------------|
   . .                    . .
|-----------------------------------------------|
|-----------------------------------------------|
|-------13-13-13-13-13-13-------5-5-6-6-5-5-----| [x2]
|--4-4--X--X--X--X--X--X---3-3--X-X-X-X-X-X-----|
|--4-4--11-11-11-11-11-11--3-3--3-3-4-4-3-3-----|
|--2-2---------------------1-1------------------|
   . .                     . .

|-----------------------------------------------|
|-----------------------------------------------|
|-----------------------------------------------|
|--8-10-11-10-8-10-11-13-11-10------------------|
|-----------------------------------------------|
|-----------------------------------------------|

VERSE
YOU TAKE MY BREATH AWAY....
|---------------------------------------------------[7]----|
|---------------------------------------------------[7]----|
|---------------------------------------------------[7]----|
|--8-8-8--8-8-8--8-8-8--6-6-6--8-8-8--8-8-8--8-8-8---------|
|--8-8-8--8-8-8--8-8-8--6-6-6--8-8-8--8-8-8--8-8-8---------|
|--6-6-6--6-6-6--6-6-6--4-4-4--6-6-6--6-6-6--6-6-6---------|

|----------------------------------------------------------|
|----------------------------------------------------------|
|----------------------------------------------------------|
|--3-3-3--3-3-3--3-3-3--3-3-3--4-4-4--4-4-4--3-3-3--3-3-3--|
|--3-3-3--3-3-3--3-3-3--3-3-3--4-4-4--4-4-4--3-3-3--3-3-3--|
|--1-1-1--1-1-1--1-1-1--1-1-1--2-2-2--2-2-2--1-1-1--1-1-1--|
                                             . .    . .

|---------------------------------------------------[7]----|
|---------------------------------------------------[7]----|
|---------------------------------------------------[7]----|
|--8-8-8--8-8-8--8-8-8--6-6-6--8-8-8--8-8-8--8-8-8---------|
|--8-8-8--8-8-8--8-8-8--6-6-6--8-8-8--8-8-8--8-8-8---------|
|--6-6-6--6-6-6--6-6-6--4-4-4--6-6-6--6-6-6--6-6-6---------|

|----------------------------------------------------------|
|----------------------------------------------------------|
|----------------------------------------------------------|
|--3-3-3--3-3-3--3-3-3--3-3-3--4-4-4--4-4-4---4---3--------|
|--3-3-3--3-3-3--3-3-3--3-3-3--4-4-4--4-4-4---4---3--------|
|--1-1-1--1-1-1--1-1-1--1-1-1--2-2-2--2-2-2---2---1--------|

PRE CHORUS
EMPTINESS HAS DARKED....
|------------9----|
|-------8---------|
|--8-10---10------|
|-----------------| [x4]
|-----------------|
|-----------------|

CHORUS
MY IRON EYES ...
|----------------------------------------------------------------|
|----------------------------------------------------------------|
|----------------------------------------------------------------|
|--8-8-8-8-8-8-10-10-10-10-11-11-11--6-6-6-6-6-6-4-4-4-4-6-6-6---|
|--8-8-8-8-8-8-10-10-10-10-11-11-11--6-6-6-6-6-6-4-4-4-4-6-6-6---|
|--6-6-6-6-6-6-8--8--8--8--9--9--9---4-4-4-4-4-4-2-2-2-2-4-4-4---|

|----------------------------------------------------------------|
|----------------------------------------------------------------|
|-------4-/-6-------4-/-6-------6-/-8--------8--/-10-------------|
|--8-8--6-/-8--8-8--6-/-8--8-8--8-/-10--8-8--10-/-11-------------|
|--8-8---------8-8---------8-8----------8-8----------------------|
|--6-6---------6-6---------6-6----------6-6----------------------|

|----------------------------------------------------------------|
|----------------------------------------------------------------|
|----------------------------------------------------------------|
|--8-8-8-8-8-8-6-6-6-6-6-6-4-4-4-4-4-4--6-6-6--------------------|
|--8-8-8-8-8-8-6-6-6-6-6-6-4-4-4-4-4-4--6-6-6--------------------|
|--6-6-6-6-6-6-4-4-4-4-4-4-2-2-2-2-2-2--4-4-4--------------------|
                                        . . .

VERSE 2
I SEE THE FEAR ...
|---------------------------------------------------------------------------------|
|----------11-11-11-11------------------------------------------------------------|
|----------10-10-10-10---------10-10-10-10---------11-11-11-11---------8-8-8-8----|
|--8-8-8-8-------------8-8-8-8-8--8--8--8--8-8-8-8-10-10-10-10-8-8-8-8-6-6-6-6----|
|--8-8-8-8-------------8-8-8-8-------------8-8-8-8-------------8-8-8-8------------|
|--6-6-6-6-------------6-6-6-6-------------6-6-6-6-------------6-6-6-6------------|

|---------------------------------------------------------------------------------|
|----------11-11-11-11------------------------------------------------------------|
|----------10-10-10-10---------10-10-10-10---------11-11-11-11---------8-8-8-8----|
|--6-6-6-6-------------6-6-6-6-8--8--8--8--6-6-6-6-10-10-10-10-6-6-6-6-6-6-6-6----|
|--6-6-6-6-------------6-6-6-6-------------6-6-6-6-------------6-6-6-6------------|
|--4-4-4-4-------------4-4-4-4-------------4-4-4-4-------------4-4-4-4------------|

|----------9-9-9-9--------9-9-9-9--------9-9-9-9-------9-9-9-9----|
|----------9-9-9-9--------9-9-9-9--------9-9-9-9-------9-9-9-9----|
|-----------------------------------------------------------------|
|--3-3-3-3---------3-3-3-3--------3-3-3-3-------3-3-3-3-----------|
|--3-3-3-3---------3-3-3-3--------3-3-3-3-------3-3-3-3-----------|
|--1-1-1-1---------1-1-1-1--------1-1-1-1-------1-1-1-1-----------|

|---------------------------------------------------------------------------------|
|----------11-11-11-11------------------------------------------------------------|
|----------10-10-10-10---------10-10-10-10---------11-11-11-11---------8-8-8-8----|
|--4-4-4-4-------------4-4-4-4-8--8--8--8--4-4-4-4-10-10-10-10-4-4-4-4-6-6-6-6----|
|--4-4-4-4-------------4-4-4-4-------------4-4-4-4-------------4-4-4-4------------|
|--2-2-2-2-------------2-2-2-2-------------2-2-2-2-------------2-2-2-2------------|

AND WHEN IM GONE....
|---------------------------------------|
|----11-13-11--11--11-13-11--11--11-13--|
|--10--------10--10--------10--10-------|
|---------------------------------------| [x4]
|---------------------------------------|
|---------------------------------------|

|---------------------------------------|
|----11--11-13-11--11--11--11-13-11-----|
|--10--10--------10--10--10-------------|
|---------------------------------------| [x4]
|---------------------------------------|
|---------------------------------------|

PRE CHORUS
EMPTINESS HAS DARKED.....

CHORUS
MY IRON EYES...

BRIDGE
|------------------------------------------------------------------------|
|--------------------------1-----1--------------------1------1-----------|
|------0-------------------------------------------------------------0---|
|--8---0---3-3-3-3---3-3-3----3-3-----3-3-3-3---3-3-3----3-3-----8---0---|
|--8-------3-3-3-3---3-3-3----3-3-----3-3-3-3---3-3-3----3-3-----8-------|
|--6-------1-1-1-1---1-1-1----1-1-----1-1-1-1---1-1-1----1-1-----6-------|
           . . . .   . . .    . .     . . . .   . . .    . .

|-----------------------------------------------------------------------|
|-----------------------------------------------------------------------|
|-----------------------------------------------------------------------|
|--3-3-3--3-3-3--3-3-3--4-4-4---4-4-4--4-4-4--8-8-8--8--8---8-8-8--8-8--| [x2]
|--3-3-3--3-3-3--3-3-3--4-4-4---4-4-4--4-4-4--8-8-8--8--8---8-8-8--8-8--|
|--1-1-1--1-1-1--1-1-1--2-2-2---2-2-2--2-2-2--6-6-6--6--6---6-6-6--6-6--|
   . . .  . . .  . . .  . . .   . . .  . . .  . . .         . . .

I WILL ...

|---------------|
|---------------|
|---------------|
|--6-7-8-/-/----|  [x4]
|--6-7-8-/-/----|
|--4-5-6-/-/----|

CHORUS
MY IRON EYES..   [x2]

OUTRO
I SEE THE FEAR GROWING    "IN THEIR"
|------------------------------------------------------|
|----------11-11-11-11---------------------------------|
|----------10-10-10-10---------10-10-10-10-------------|
|--8-8-8-8-------------8-8-8-8-8--8--8--8--8-8-8-8-----|
|--8-8-8-8-------------8-8-8-8-------------8-8-8-8-----|
|--6-6-6-6-------------6-6-6-6-------------6-6-6-6-----|
                                           . . . .

WELL THATS IT, IF YOU WANT TO SE HOW IT SOUNDS CHECK THE URL:

http://www.youtube.com/watch?v=TXiKRultd1E

HOPE ENJOY IT          FREAKY WI ^_^!!
comments
print report bad tab
14 comments total. Showing first comments. show 1 bad comment
-1 reply
killeranto wrote on November 6 2006, 06:38 pm

this tab is perfect =]]]]]

the guy that has tabed this

is

a

legend

thank you sooo much

im off to learn it now =]

0 reply
HurricaneSG wrote on December 10 2007, 12:36 pm

nah its muted in the song too

I want to post or [tab]
guest
You may want to rate the tab now too:
select rating
Please do not post tabs as comments. Select "correction" instead!