Oops, an error
Loading. Please wait.

Tilting The Hourglass tab

version 3
version 3

Whole song

Interactive

by Alesana
5,788 views 1 this week
1 commentread comment
1 2 3 4 5
x 5
add to favorites
×
Save as Personal and add changes to this tab that will be seen only by you. Learn more ›
×
You can save this tab as Personal to edit and correct it or add notes. All changes will be seen only by you. Learn more »
launch autoscroll
font size
0
reset
how to read this tab
guitar tuner
edit
Autoscroll
slow
fast
+/-
esc
set tempo
stop
Author
TILTING THE HOURGLASS

TABBED BY BOB

QUOTE TAT [.] IS PALM MUTE

THIS GUITAR TAB IS FOR GUITAR 2..RYHTHM GUITAR..


|-----------------------------------------------|
|-----------------------------------------------|
|-----------------------------------------------|  intro x2
|--7-7--------7-7--------3-3-------2-2----------|
|--7-7--------7-7--------3-3-------2-2----------|
|--5-5--------5-5--------1-1-------0-0----------|
   . .        . .        . .       . .

VERSE
YOU TAKE MY BREATH AWAY....
|----------------------------------------------------------|
|----------------------------------------------------------|
|----------------------------------------------------------|
|--7-7-7--7-7-7--7-7-7--5-5-5--7-7-7--7-7-7--7-7-7---------|
|--7-7-7--7-7-7--7-7-7--5-5-5--7-7-7--7-7-7--7-7-7---------|
|--5-5-5--5-5-5--5-5-5--3-3-3--5-5-5--5-5-5--5-5-5---------|

|----------------------------------------------------------|
|----------------------------------------------------------|
|----------------------------------------------------------|
|--2-2-2--2-2-2--2-2-2--2-2-2--3-3-3--3-3-3--2-2-2--2-2-2--|
|--2-2-2--2-2-2--2-2-2--2-2-2--3-3-3--3-3-3--2-2-2--2-2-2--|
|--0-0-0--0-0-0--0-0-0--0-0-0--1-1-1--1-1-1--0-0-0--0-0-0--|
                                             . .    . .

|----------------------------------------------------------|
|----------------------------------------------------------|
|----------------------------------------------------------|
|--7-7-7--7-7-7--7-7-7--5-5-5--7-7-7--7-7-7--7-7-7---------|
|--7-7-7--7-7-7--7-7-7--5-5-5--7-7-7--7-7-7--7-7-7---------|
|--5-5-5--5-5-5--5-5-5--3-3-3--5-5-5--5-5-5--5-5-5---------|

|----------------------------------------------------------|
|----------------------------------------------------------|
|----------------------------------------------------------|
|--2-2-2--2-2-2--2-2-2--2-2-2--3-3-3--3-3-3--3---2---------|
|--2-2-2--2-2-2--2-2-2--2-2-2--3-3-3--3-3-3--3---2---------|
|--0-0-0--0-0-0--0-0-0--0-0-0--1-1-1--1-1-1--1---0---------|

CHORUS
MY IRON EYES ...
|----------------------------------------------------------|
|----------------------------------------------------------|
|----------------------------------------------------------|
|--7-7-7-7-7-7-9-9-9-9-10-10-10-5-5-5-5-5-5-3-3-3-3-5-5-5--|
|--7-7-7-7-7-7-9-9-9-9-10-10-10-5-5-5-5-5-5-3-3-3-3-5-5-5--|
|--5-5-5-5-5-5-7-7-7-7-8--8--8--3-3-3-3-3-3-1-1-1-1-3-3-3--|

|----------------------------------------------------------------|
|----------------------------------------------------------------|
|----------------------------------------------------------------|
|--7-7---------7-7---------7-7----------7-7----------------------|
|--7-7---------7-7---------7-7----------7-7----------------------|
|--5-5---------5-5---------5-5----------5-5----------------------|

|----------------------------------------------------------------|
|----------------------------------------------------------------|
|----------------------------------------------------------------|
|--7-7-7-7-7-7-5-5-5-5-5-5-3-3-3-3-3-3--5-5-5--------------------|
|--7-7-7-7-7-7-5-5-5-5-5-5-3-3-3-3-3-3--5-5-5--------------------|
|--5-5-5-5-5-5-3-3-3-3-3-3-1-1-1-1-1-1--3-3-3--------------------|
                                        . . .

VERSE 2
I SEE THE FEAR ...
|-------------------------------------------------------------------------|
|-------------------------------------------------------------------------|
|-------------------------------------------------------------------------|
|--7-7-7-7-------------7-7-7-7-------------7-7-7-7-------------7-7-7-7----|
|--7-7-7-7-------------7-7-7-7-------------7-7-7-7-------------7-7-7-7----|
|--5-5-5-5-------------5-5-5-5-------------5-5-5-5-------------5-5-5-5----|

|-------------------------------------------------------------------------|
|-------------------------------------------------------------------------|
|-------------------------------------------------------------------------|
|--5-5-5-5-------------5-5-5-5-------------5-5-5-5-------------5-5-5-5----|
|--5-5-5-5-------------5-5-5-5-------------5-5-5-5-------------5-5-5-5----|
|--3-3-3-3-------------3-3-3-3-------------3-3-3-3-------------3-3-3-3----|

|-----------------------------------------------------------------|
|-----------------------------------------------------------------|
|-----------------------------------------------------------------|
|--2-2-2-2---------2-2-2-2--------2-2-2-2-------2-2-2-2-----------|
|--2-2-2-2---------2-2-2-2--------2-2-2-2-------2-2-2-2-----------|
|--0-0-0-0---------0-0-0-0--------0-0-0-0-------0-0-0-0-----------|

|-------------------------------------------------------------------------|
|-------------------------------------------------------------------------|
|-------------------------------------------------------------------------|
|--4-4-4-4-------------4-4-4-4-------------4-4-4-4-------------4-4-4-4----|
|--4-4-4-4-------------4-4-4-4-------------4-4-4-4-------------4-4-4-4----|
|--1-1-1-1-------------1-1-1-1-------------1-1-1-1-------------1-1-1-1----|

AND WHEN IM GONE....
|---------------------------------------------|
|---------------------------------------------|
|---------------------------------------------|
|--7-7-7-7-7-7-7-7-7-7-7-7-7-7-7-7------------|
|--7-7-7-7-7-7-7-7-7-7-7-7-7-7-7-7------------|
|--5-5-5-5-5-5-5-5-5-5-5-5-5-5-5-5------------|

|---------------------------------------------|
|---------------------------------------------|
|---------------------------------------------|
|--5-5-5-5-5-5-5-5-5-5-5-5-5-5-5-5------------|
|--5-5-5-5-5-5-5-5-5-5-5-5-5-5-5-5------------|
|--3-3-3-3-3-3-3-3-3-3-3-3-3-3-3-3------------|

|---------------------------------------------|
|---------------------------------------------|
|---------------------------------------------|
|--2-2---2-2---2-2---2-2----------------------|
|--2-2---2-2---2-2---2-2----------------------|
|--0-0---0-0---0-0---0-0----------------------|

|---------------------------------------------|
|---------------------------------------------|
|---------------------------------------------|
|--4-4---4-4---4-4---4-4----------------------|
|--4-4---4-4---4-4---4-4----------------------|
|--1-1---1-1---1-1---1-1----------------------|

Pre-chorus

Emptiness Has Darkened My Eyes As I hopelessly
beg fer my life to end....
tell me why....
               den....u PLAY DIS        
|---------------------------------------------|
|---------------------------------------------|
|---------------------------------------------|
|--7---------5--------2---------3-------------|
|--7---------5--------2---------3-------------|
|--5---------3--------0---------1-------------|

CHORUS
MY IRON EYES...


BRIDGE
|------------------------------------------------------------------------|
|------------------------------------------------------------------------|
|------------------------------------------------------------------------|
|--7-------2-2-2-2---2-2-2----2-2-----2-2-2-2---2-2-2----2-2-----3-------|
|--7-------2-2-2-2---2-2-2----2-2-----2-2-2-2---2-2-2----2-2-----3-------|
|--5-------0-0-0-0---0-0-0----0-0-----0-0-0-0---0-0-0----0-0-----1-------|
           . . . .   . . .    . .     . . . .   . . .    . .

|-----------------------------------------------------------------------|
|-----------------------------------------------------------------------|
|-----------------------------------------------------------------------|
|--2-2-2--2-2-2--2-2-2--3-3-3---3-3-3--3-3-3--7-7-7--7--7---7-7-7--7-7--| [x2]
|--2-2-2--2-2-2--2-2-2--3-3-3---3-3-3--3-3-3--7-7-7--7--7---7-7-7--7-7--|
|--0-0-0--0-0-0--0-0-0--1-1-1---1-1-1--1-1-1--5-5-5--5--5---5-5-5--5-5--|
   . . .  . . .  . . .  . . .   . . .  . . .  . . .         . . .

I WILL DESTROY...
|---------------|
|---------------|
|---------------|
|--5-6-7-/-/----|  [x4]
|--5-6-7-/-/----|
|--3-4-5-/-/----|
                                                           
|---------------|
|---------------|
|---------------|
|--5~-----------|
|--5~-----------|
|--3~-----------|

CHORUS
MY IRON EYES..   [x2]

|-----------------------------------------------|
|-----------------------------------------------|
|-----------------------------------------------|  
|--7-7--------7-7--------3-3-------2-2----------|
|--7-7--------7-7--------3-3-------2-2----------|
|--5-5--------5-5--------1-1-------0-0----------|
   . .        . .        . .       . .


THNX FOR VIEWING...

PLSS COMMENT..

BOB


            
            
Suggest correction
Creating personal tab
Creating personal tab
You can edit any tab online and save it as your Personal.

You can edit, replace or remove any tab part or add personal notes – all changes will be seen only by you.

Personal tabs can be accessed anytime from any device, even offline.
Learn more »
comments
print report bad tab
1 comment total.
0 reply
JSFS 35 Jun 20, 2008 12:12 PM

Well, not to bad, for rhythm =P
Hehe jk jk, you really do have most of it right.
A few parts you messed up a tad on though.
For example, the "I WILL DESTROY" part's all wrong.
And the 144xxx chord really doesn't work there. '
But hey, yuo did reallu good just about everywhere else.
Maybe I'll have to take the time out to tab out the lead sum time xD
4*

guest
You may want to rate the tab now too:
select rating
Wanna post a correction for this tab? Suggest correction