Oops, an error
Loading. Please wait.

To Be Scared By An Owl bass

version 1
version 1

Whole song

Interactive

by Alesana
2,081 views 1 this week
no commentswrite comment
1 2 3 4 5
2 more votes to show rating
add to favorites
×
Save as Personal and add changes to this tab that will be seen only by you. Learn more ›
×
You can save this tab as Personal to edit and correct it or add notes. All changes will be seen only by you. Learn more »
launch autoscroll
font size
0
reset
guitar tuner
edit
Autoscroll
slow
fast
+/-
esc
set tempo
stop
Author
+++++++++++++++++++++++++++++++++++
| Alesana- To Be Scared By An Owl |
+++++++++++++++++++++++++++++++++++


"I know I promised you the world..."

Tuning: Drop D (DADG)


Verse
"Look at the sky..."
1.
G|-----------------------------------------------------|
D|-----------------------------------------------------|
A|-------------333x--------111x--------000x----0000000-|--x2
D|-000x------------------------------------------------|

Pre-Chorus
"I'm scared to death..."
2.
G|------------------------------------------------------------------------|
D|------------------------------------------------------------------------|
A|-11111113-33333333-0000000-----------11111113-33333333-0000000----------|
D|--------------------------0-00000000--------------------------0x--------|

Chorus
"You know I used to search the sky..."
3.
G|-------------------------------------------------------------------------|
D|-------------------------------------------------------------------------|
A|-1111111-3-3333333-------------------1111111-3-3333333-------------------|--x2
D|-------------------0000000-0-0000000-------------------0000000-0-0000000-|

Verse
"Look in my eyes..."
4.
G|-------------------------------------------------|
D|-------------------------------------------------|
A|-------------333x--------111x--------000x--------|
D|-000x--------------------------------------------|

5.
G|---------------------------------------------------------------------------------|
D|---------------------------------------------------------------------------------|
A|-------------------------------------------------------------3x-33x-1x-11x-1x-0x-|--x2
D|-0x-00x-0x-00x-0x-0x-0x-00x-0x-00x-0x-0x-0x-00x-0x-00x-0x-0x---------------------|

Pre-Chorus
"I'm scared to death..."
6.
G|------------------------------------------------------------------------|
D|------------------------------------------------------------------------|
A|-11111113-33333333-0000000-----------11111113-33333333-0000000----------|
D|--------------------------0-00000000--------------------------0x--------|

Chorus
"You know I used to search the sky..."
7.
G|-------------------------------------------------------------------------|
D|-------------------------------------------------------------------------|
A|-1111111-3-3333333-------------------1111111-3-3333333-------------------|--x2
D|-------------------0000000-0-0000000-------------------0000000-0-0000000-|

Bridge
"You killed her, you murderer..."
8.
G|---------------------------------------------------------------------------------------------|
D|---------------------------------------------------------------------------------------------|
A|-----------------------------------------------11111x---11111x-11111x-33333x---33333x-00000x-|x2
D|-00000x---00000x-00000x-00000x---00000x-00000x-----------------------------------------------|

Pre-Chorus
"I'm scared to death..."
9.
G|------------------------------------------------------------------------|
D|------------------------------------------------------------------------|
A|-11111113-33333333-0000000-----------11111113-33333333-0000000----------|
D|--------------------------0-00000000--------------------------0x--------|

Chorus
"You know I used to search the sky..."
10.
G|-------------------------------------------------------------------------|
D|-------------------------------------------------------------------------|
A|-1111111-3-3333333-------------------1111111-3-3333333-------------------|--x2
D|-------------------0000000-0-0000000-------------------0000000-0-0000000-|

Outro
"You'd better look behind you..."
11.
G|------------------|
D|------------------|
A|------------------|
D|-000x--------000x-|



Lyrics:

Look at the sky
As the night descends
The rain is crashing down,
I've hit another dead end
Just before I let hope slip away
A shadow is revealed, the devil shows his face

I'm scared to death and have myself to blame,
I'm to blame
How did we end up fighting anyway?

You know, I used to search the sky
And dream of where you were
I need you by my side,
We can end this together
I know I promised you the world
And still I let you down
I need you by my side
And together we'll end this now

Look in my eyes! Am I shaking now?
I am all you fear, have I made myself clear?

Shut your mouth and finish what you've started
Boy, you haven't got the slightest idea
Just who I am and what I do for you
Don't you see that I am trying to save you?
Shut your mouth and finish what you've started

As the last rays of sunlight fade,
One killer chases another
Through the tangled madness of the city
A flash of steel announces the presence of his quarry
The stage is set, the night explodes...

You killed her, you murderer
You have stripped me of the one that I love
Annabel, our Annabel
You have no clue what she's capable of...

You'd better look behind you...



+++++++++++++++++++++++++++++++++
| RaiLeff                       |
| Underground__Dora@Hotmail.Com |
+++++++++++++++++++++++++++++++++
Suggest correction
Creating personal tab
Creating personal tab
You can edit any tab online and save it as your Personal.

You can edit, replace or remove any tab part or add personal notes – all changes will be seen only by you.

Personal tabs can be accessed anytime from any device, even offline.
Learn more »
Give kudos to tab author, rate the tab!
1 2 3 4 5
comments
print report bad tab
guest
You may want to rate the tab now too:
select rating
Wanna post a correction for this tab? Suggest correction