Oops, an error
Loading. Please wait.

Try This With Your Eyes Closed album bass

by Alesana
1,822 views 1 this week
2 commentsread comments
1 2 3 4 5
1 last vote to show rating
add to favorites
×
Save as Personal and add changes to this tab that will be seen only by you. Learn more ›
×
You can save this tab as Personal to edit and correct it or add notes. All changes will be seen only by you. Learn more »
launch autoscroll
font size
0
reset
guitar tuner
edit
Autoscroll
slow
fast
+/-
esc
set tempo
stop
Author
+++++++++++++++++++++++++++++++++++++++++++
| Alesana- Try This With Your Eyes Closed |
+++++++++++++++++++++++++++++++++++++++++++

Bass Tab
Tuning: EADG and Drop D

++++++++++++++++++++++++++++++

Tracks:

1. Apology
2. Endings Without Stories
3. And They Call This Tragedy
4. Not A Single Word About This
5. Red And Dying Evening
6. Congratulations, I Hate You
7. Early Morning

++++++++++++++++++++++++++++++

1. Apology

Tuning: EADG

"You're Everything To Me" 0:44 x3
1.
G|----------------------------------|
D|----------------------------------|
A|----------------2222222-2222222---|
E|-333333-5555555-------------------|

2.
G|----------------------------------|
D|----------------------------------|
A|----------------2~----------------|
E|-333333-5555555-------------------|

"And to think..."
3.
G|----------------------------------|
D|----------------------------------|
A|----------------------------------|
E|-7/3~-5~----7~---7/3~-------------|

"This is the end!!"
4.
G|-------------|
D|-------------|
A|-------------|
E|-5555x-------|

Chorus
"I'll Loose Myself in Anguish.."
5.
G|----------------------------------|
D|----------------------------------|
A|----------------------------------|
E|-7777777-5555555-3333333-5555555--|

6.     x3
G|----------------------------------|
D|----------------------------------|
A|----------------2222222-2222222---|
E|-333333-5555555-------------------|

7.
G|----------------------------------|
D|----------------------------------|
A|----------------------------------|
E|-333333-5555555-5-2~-1/14---------|

Chorus
8.
G|----------------------------------|
D|----------------------------------|
A|----------------------------------|
E|-7777777-5555555-3333333-5555555--|

"One last false apology.."
9.
G|----------------------------------|
D|----------------------------------|
A|----------------------------------|
E|-7777777-5555555-2222222-3333333--|

Outro 2:43
10.
G|----------------|
D|-7/9~-9-7-------|
A|---------9-7----|
E|----------------|

"Urgency overwhelms.." 2:51
11.
G|----------------------------------|
D|----------------------------------|
A|-2222222-2222222------------------|
E|----------------3333333-5555555---|

"Must Restrain.."
12.
G|-------------------|
D|-------------------|
A|-------------------|
E|-7~----7/3~----5~--|

13. 3:08
G|----------------------------------------|
D|----------------------------------------|
A|----------------------------------------|
E|-3333-3333-3333-3333-5555-5555-5555-5555|

14.
G|-----------------------|
D|-----------------------|
A|-----------------------|
E|-2222-2222-2222-222----|

"I Refuse..."
15.
G|----------------------------------------|
D|----------------------------------------|
A|-2222-2222-2222-2222--------------------|
E|---------------------3333-3333-3333-3333|

16.
G|----------------------------------|
D|----------------------------------|
A|----------------------------------|
E|-5555-5555-5555-5555-222222222222-|

Chorus
17.
G|----------------------------------|
D|----------------------------------|
A|----------------------------------|
E|-7777777-5555555-3333333-5555555--|

18.
G|----------------------------------|
D|----------------------------------|
A|----------------------------------|
E|-7777777-5555555-2222222-3333333--|

"In My Mind.."
19.
G|--------------------------------------------|
D|--------------------------------------------|
A|-2222-2222-------------------------------2~-|
E|-----------3333-3333-5555-5555-2222-2222----|

Lyrics:

Sweat drips in my eyes
screams of lust we cry
tonight you are everything
you're everything...
you're everything to me no more
as I wake from this perfect dream
I'll escape from Eden's walls
can I not stay and live this lie?
go away and I'll think only of myself

And to think that you would not be scared
or surprised if I'd severed all these ties
this is the end...

I'll lose myself in anguish for tonight
help me get over you
one last false apology
help me get over you

I feel so numb to see this bitter end of beautiful illusions...
would this be the same?
broken pieces will not mend to save our past now...go away...

Now we must let go
urgency overwhelms me as I must restrain my flood of tears
I refuse to be slave to your false beauty again

++++++++++++++++++++++++++++++++++++++++

2. Endings Without Stories

Tuning: EADG

Intro
"This time I die"
1.
G|---------------|
D|---------------|
A|---------------|
E|-3x---3333x-3~-|

Verse
"Our love ruined by your malignance" x2
2.
G|-----------------------------|
D|-----------------------------|
A|-----------------------------|
E|-333333-555555-666666-888888-|

Pre-Chorus
3.
G|---------------------------------|
D|---------------------------------|
A|-55555555-55555555-55555555------|
E|----------------------------55-5-|

Chorus
"I watched the smile fading from your face.."
4.
G|---------------------------------|
D|---------------------------------|
A|-22222222-2222222-2222222-222222-|
E|---------------------------------|

"You bled till there was nothing in your veins.."
5.
G|---------------------------------|
D|---------------------------------|
A|---------------------------------|
E|-33333333-3333333-3333333-333333-|

"Blood stains my hands.."
6.
G|---------------------------------|
D|---------------------------------|
A|-55555555-5555555-5555555-555555-|
E|---------------------------------|

"I won't forget you..."
7.
G|--------------------------|
D|--------------------------|
A|-44444444-4444444-4444444-|
E|--------------------------|

"So dry your eyes.."
8.
G|--------------------------------|
D|--------------------------------|
A|-------22222222-2222222-2222222-|
E|-3-555--------------------------|

"Be afraid to die.."
9.
G|---------------------------------------|
D|---------------------------------------|
A|-2-------------------------------------|
E|---555-33333333-3333333-3333333-333333-|

"Blood stains my hands.."
10.
G|----------------------------------|
D|----------------------------------|
A|-55555555-5555555-5555555-5555555-|
E|----------------------------------|

"I won't forget you..! "
11.
G|-----------------|
D|-----------------|
A|-4-4-4-4-4-4-4-4-|
E|-----------------|

Outro.
12.
G|---------------|
D|---------------|
A|---------------|
E|-3x---3333x-3~-|

Verse
13.
G|-----------------------------|
D|-----------------------------|
A|-----------------------------|
E|-333333-555555-666666-888888-|

14.
G|----------------------------------|
D|----------------------------------|
A|----------------------------------|
E|-333333-555555-666666-8-6-5-6-5-3-|

15.
G|---------------------------------------------|
D|---------------------------------------------|
A|---------------------------------------------|
E|-222222-333333-022-022-022-022-222222-333-5x-|

Instrumental
16.
G|------------------------------|
D|------------------------------|
A|-222222---------------555-444-|
E|--------222222-333333---------|

17.
G|-------------------------|
D|-------------------------|
A|-222222---------------5x-|
E|--------222222-333333----|

18.
G|------------------------------|
D|------------------------------|
A|-222222---------------555-444-|
E|--------222222-333333---------|

19.
G|----------------------|
D|----------------------|
A|-222222---------------|
E|--------222222-333333-|

Chorus
"I watched the smile fading from your face.."
20.
G|---------------------------------|
D|---------------------------------|
A|-22222222-2222222-2222222-222222-|
E|---------------------------------|

"You bled till there was nothing in your veins.."
21.
G|---------------------------------|
D|---------------------------------|
A|---------------------------------|
E|-33333333-3333333-3333333-333333-|

"Blood stains my hands.."
22.
G|---------------------------------|
D|---------------------------------|
A|-55555555-5555555-5555555-555555-|
E|---------------------------------|

"I won't forget you..."
23.
G|--------------------------|
D|--------------------------|
A|-44444444-4444444-4444444-|
E|--------------------------|

"So dry your eyes.."
24.
G|--------------------------------|
D|--------------------------------|
A|-------22222222-2222222-2222222-|
E|-3-555--------------------------|

"Be afraid to die.."
25.
G|---------------------------------------|
D|---------------------------------------|
A|-2-------------------------------------|
E|---555-33333333-3333333-3333333-333333-|

"Blood stains my hands.."
26.
G|----------------------------------|
D|----------------------------------|
A|-55555555-5555555-5555555-5555555-|
E|----------------------------------|

"I won't forget you..! "
27.
G|-----------------|
D|-----------------|
A|-4-4-4-4-4-4-4-4-|
E|-----------------|

2:52- 3:05

 A|-2222222222222-|

And in 3:05 :

28.
G|-------------------------------------|
D|-------------------------------------|
A|-22222222-22222222-22222222-22222222-|
E|-------------------------------------|

29.
G|-------------------------------------|
D|-------------------------------------|
A|-------------------------------------|
E|-33333333-33333333-33333333-33333333-|

30.
G|-------------------------------------|
D|-------------------------------------|
A|-55555555-55555555-55555555-55555555-|
E|-------------------------------------|

31.
G|----------------------------------------|
D|----------------------------------------|
A|-44444444-44444444-44444444-44444444-2~-|
E|----------------------------------------|

32.
G|----------|
D|----------|
A|-2-2-2-2x-|
E|----------|

Lyrics:

This time I die

Our love ruined by your malignance
Broken shards of feelings are now just tainted memories left
Beautiful dreams that I cherished now are so disgusting as I strangle the light from you

I watched the smile fading from your face
You bled till there was nothing in your veins
Blood stains my hands so I won't forget you
Its all over now so dry your eyes
There is no forgiveness, be afraid to die
Blood stains my hands so I won't forget you

Tears fall as your screams of anguish rage throughout the heavens
Amidst the penance you must pay
Caress this bullet as eyes close to the painful memories you left
Consume the rest of me
My vision of you has now turned to dust, your porcelain smile gone

You let me go
You let me go too soon
I love you are meaningless words that slip away as I slit your throat
And I will slit your throat 

++++++++++++++++++++++++++++++++++++

3. And They Call This Tragedy

Tuning: Drop D

Intro.
1.
|----------------------------|
|----------------------------|
|-4~-----2~-----4~---9/10-2~-|
|----------------------------|

2.
|----------------------------------------------------------------------|
|----------------------------------------------------------------------|
|----------------------------------------------------------------------|
|-5555555555555555-77777777777777777-44444444444444444-555555555555555-|

Verse
"You make me sick.." Play faster
3.
|----------------------------------|
|----------------------------------|
|----------------------------------|
|-5555555555555555-777777777777777-|

"I'll tear out.."
4.
|-------------------------------------------|
|-------------------------------------------|
|-44x--44x--44x-44-22x------------------22x-|
|----------------------55x--55x--55x-55-----|

"Crimson spills.."
5.
|------------------------------------------|
|------------------------------------------|
|-44x--44x--44x-44-22x---------------------|
|----------------------55x--55x--55x-5x-7x-|

"Remembering the nights."
6.
|---------------------------------------------------------|
|---------------------------------------------------------|
|-------------------------------44444-22222------------2~-|
|-555555555-777777777-444444444-------------5555555555----|

Chorus
"As the life fades from your eyes.."
7.
|----------------------------------------------------------------------------|
|----------------------------------------------------------------------------|
|-44444-4-4-4--44444-4-4-4-000000-0-0-0-00000-0-0-0-222222-2-2-2-22222-2-2-2-|--|
|----------------------------------------------------------------------------|  |
                                                                                |
"Is it may not be too late.."                   --------------------------------|
8.                                              |
|---------------|                               |
|---------------|                               |---x2
|---------------|                               |
|-44x--44x--4-4-|-------------------------------|

Outro
9
|---------------|
|---------------|
|-4~---------4~-|
|---------------|

Verse
"If I can.."      x4
10.
|-------------------------------|
|-------------------------------|
|------44444444-4-4-4--44-4-4-4-|
|-5~----------------------------|

Pre-Chorus
"Your demise.."
11.
|---------------|
|---------------|
|---------------|
|-5~---------5~-|

Chorus
"As the life fades from your eyes.."
12.
|----------------------------------------------------------------------------|
|----------------------------------------------------------------------------|
|-44444-4-4-4--44444-4-4-4-000000-0-0-0-00000-0-0-0-222222-2-2-2-22222-2-2-2-|
|----------------------------------------------------------------------------|  
                                                                                 
"Is it may not be too late.."                    
13.                                               
|---------------|                               
|---------------|                               
|---------------|                               
|-44x--44x--4-4-|

"Try again, make it perfect.."
14.
|--------------------6-6-6--------------------------------------------------|
|-------------------------777777-7-7-7-77777-7-7-7--------------------------|
|-444444-4-4-4-44444-------------------------------222222-2-2-2-22222-2-2-2-|
|---------------------------------------------------------------------------|

"Or else die with all I care.."
15.
|---------------|                              
|---------------|                             
|---------------|                              
|-44x--44x--4-4-|

Outro.
16.
|---------------|
|---------------|
|-4~---------4~-|
|---------------|

17.
|---------------|
|---------------|
|---------------|
|-5~---------5~-|

"After today silence will haunt you.." x2
18.
|--------------------------------------------------------------------|
|--------------------------------------------------------------------|
|-4444444444444444-4444444444444444-000000000000000-0000000000000000-|
|--------------------------------------------------------------------|

19.
|----------------------|
|----------------------|
|----------------------|
|-0~-----0~-0--0-0-0-0-|

"Now I.. Grit my.."
20.
|--------------------------------|
|--------------------------------|
|-----7~-----7~-----7~-3333-5555-|
|-000x---000x---000x-------------|

"To kill the memory of you.." 
21.
|------------------------------------------|
|--------------------------------5555-4444-|
|-----7~-----7~-----7~-3333-5555-----------|
|-000x---000x---000x-----------------------|

22.
|--------------------------------|
|--------------------------------|
|-----7~-----7~-----7~-3333-5555-|
|-000x---000x---000x-------------|

23.
|------------------------------------------|
|--------------------------------5555-4444-|
|-----7~-----7~-----7~-3333-5555-----------|
|-000x---000x---000x-----------------------|

"You said this would be forever.."
24.
|------------------------------------|
|------------------------------------|
|-3-3-3-3-3-3-3-3-5-5-5-5-5-5-5-5-2~-|
|------------------------------------|

Chorus
"As the life fades from your eyes.."
25.
|----------------------------------------------------------------------------|
|----------------------------------------------------------------------------|
|-44444-4-4-4--44444-4-4-4-000000-0-0-0-00000-0-0-0-222222-2-2-2-22222-2-2-2-|--|
|----------------------------------------------------------------------------|  |
                                                                                |
"Is it may not be too late.."                   --------------------------------|
26.                                             |
|---------------|                               |
|---------------|                               |---x2
|---------------|                               |
|-44x--44x--4-4-|-------------------------------|

Lyrics:

You make me sick

I'll tear out those diamond eyes I can't bear to see
Crimson spills on paper skin
They call this tragedy
Remembering the nights when you'd whisper to me soft, "forever more my heart is yours"
Realize those words have died

As the life fades from your eyes
All that I can say is it may not be too late
Try again, make it perfect, make me worth it
Or else die for all I care

If I can not be loved then none shall be
Think of this as I softly kiss your blood glazed lips once more
On this night this thing you call love dies
Your face disgusts me, smile and bear your lies
This broken trust will become your demise

After today silence will haunt you
Expect no forgiveness for your life will end tonight
Now I grit my teeth and finish what I know must be done
To kill the memory of you... and you said this would be forever

++++++++++++++++++++++++++++++++++++

4. Not A Single Word About This

Tuning: EADG

Intro.
1.
G|-----------------------------------------------|
D|-----------------------------------------------|
A|-222222222-333333333-----------5-5-5-5-5-5-5-5-|
E|---------------------333333333-----------------|

2.
G|---------------------|
D|---------------------|
A|-222222222-333333333-|
E|---------------------|

Verse
"I can't help believing.." x2
3.
G|------------------------------------|
D|------------------------------------|
A|-00x--33x-----------5-5-5-5-5-5-5-5-|
E|----------333333333-----------------|

Chorus
"I'd push you away..." x2
4.
G|------------------------------------------------|
D|------------------------------------------------|
A|-222222222-333333333-----------5-5-5-5-5-5-5-5--|
E|---------------------333333333------------------|

Outro.
5.
G|-----------|
D|-----------|
A|-0~-2-0-3~-|
E|-----------|

Verse
"I stare blindly.." x2
6.
G|--------------------------------------------------------------------------|
D|--------------------------------------------------------------------------|
A|-000000000000000-3x-3x-3x-3x-3x-3x-3x-3x------------------5-5-5-5-5-5-5-5-|
E|-----------------------------------------3333333333333333-----------------|

"I can't see past your eyes.."
7.
G|----------------------------------------------------------------------|
D|----------------------------------------------------------------------|
A|-00000000000000000-2222222222222222-3333333333333333-5555555555555555-|
E|----------------------------------------------------------------------|

"Shackles cut my wrists.."
8.
G|---------------------------------------------------------|
D|---------------------------------------------------------|
A|-00-00-000-0-0-22-22-222-2-2-33-33-333-3-3-55-55-555-5-5-|
E|---------------------------------------------------------|

Chorus
" I'd push you away... But you were the only thing I know.."
9.
G|---------------------------------------|
D|---------------------------------------|
A|---------------------5-5-5-5-5-5-5-5-5-|
E|------------33333333-------------------|

10.
G|------------------------------------------------|
D|------------------------------------------------|
A|-222222222-333333333-----------5-5-5-5-5-5-5-5--|
E|---------------------333333333------------------|

Outro.
11.
G|--------------------|
D|--------------------|
A|-0~-2-0-3~-----333~-|
E|--------------------|

12.
G|-------------------------------------------------------|
D|-------------------------------------------------------|
A|-----------------------0-2-5-5-55-55~-5-5-55-55~-5h7-0-|
E|-3-3-33-33~-3-3-33-33~---------------------------------|

13.
G|----------------------------------------------------------------|
D|---------------------------4h5-4h5----------------------5h7-5h7-|
A|-2-2-22-22~-2h3-2-2-22-22~---------3-3-33-33~-3-3-33-33~--------|
E|----------------------------------------------------------------|

"In a room where I once told you..."
14.
G|--------------------------------------------------------------------|
D|--------------------------------------------------------------------|
A|-----------------------------------5555555555555555-555555555555555-|
E|-3333333333333333-3333333333333333----------------------------------|

15.
G|--------------------------------------------------------------------|
D|--------------------------------------------------------------------|
A|-2222222222222222-2222222222222222-3333333333333333-333333333333333-|
E|--------------------------------------------------------------------|

"Once beholden.."
16.
G|------------------------------------------------------------------|
D|------------------------------------------------------------------|
A|---------------22222x-22222x--------------55555555555555555555555-|
E|-55555x-55555x---------------33333x-33333x------------------------|

17.
G|----------------------------------------------------------|
D|----------------------------------------------------------|
A|---------------22222x-22222x---------------5x--5x--5x--5x-|
E|-55555x-55555x---------------33333x-33333x----------------|

18.
G|----------------------------------------------------------------------------------|
D|----------------------------------------------------------------------------------|
A|---------------------55555555555555555555--------------------22222222222222222222-|
E|-00000000000000000000--------------------33333333333333333333---------------------|

19.
G|---------------------------|
D|---------------------------|
A|---------------------------|
E|-0000x-0000x-0000x-00-0-0x-|

Lyrics:

I'd push you away but you are the only thing I know

I can't help believing in you... the idea of beauty leaves me enslaved
Say you'll stay for tonight and I promise you this will be the last

I'd push you away but you are the only thing I know
at your feet I now lay for you are the only thing I know

I stare blindly into my reflection
a piece of me lost... I am terrified that I cannot breathe without you
I am nothing in my eyes if not lost
I can't see past your eyes, without them I would die
Shackles cut my wrists as I fight the chains
None can hold me

I'd push you away but you are the only thing I know
at your feet I now lay for you are the only thing I know

In a room where I once told you everything, I am alone
once beholden to nothing and no one
how is it that I am slave to these eyes which glisten with untold secrets
that I crave so wildly to understand?
I must steel my heart to your warm gaze
I'll claw out my eyes and see you no more
its because of you I sometimes wish that I would die
sometimes I wish I would die leaving you behind
enraptured by my ignorance, I now deserve sympathy 

++++++++++++++++++++++++++++++++++++++++++++++++++++

5. Red And Dying Evening

Tuning: Drop D

Intro.
"You've taken the last.."    x4
1.
|--------------------------------------|
|--------------------------------------|
|-3333-5555-77777777-22222222-33333333-|
|--------------------------------------|

2.
|-----------|
|-----------|
|-3333-5555-|
|-----------|

Verse
"The God's of your innocence.."    x4
3.
|-------------------|
|--------02---------|
|-0132-03-----------|
|-----------0-0-0-0-|

"You've taken the last of me.."
4.
|--------------|
|--------------|
|-33x-Drums----|
|--------------|

"Blame the end on yourself.."
5.
|--------------------------------------|
|--------------------------------------|
|-55555555-55555555-55555555-5555-7777-|
|--------------------------------------|

"You deserve each tear that falls.."
6.
|-----|
|-----|
|-33x-|
|-----|

"Scratch out your eyes.."
7.
|------------------------------------|
|------------------------------------|
|-55555555-55555555-55555555-555-5-5-|
|------------------------------------|

Chorus
"The blood will drown you in red.."
8.
|-----------------------------------------------|
|-----------------------------------------------|
|-7777777777-77777777-222-33333333-333333333333-|
|-----------------------------------------------|

"A lovely evening draped in regret.."
9.
|-----------------------------------------------------|
|-----------------------------------------------------|
|-5555555-55555555-55555555-55555555-22x-22~--22x-22~-|
|-----------------------------------------------------|

Verse
"The shadow of justice.."     x4
10.
|-------------------|
|--------02---------|
|-0132-03-----------|
|-----------0-0-0-0-|

"You've taken the last of me.."
11.
|--------------|
|--------------|
|-33x-Drums----|
|--------------|

"Blame the end on yourself.."
12.
|--------------------------------------|
|--------------------------------------|
|-55555555-55555555-55555555-5555-7777-|
|--------------------------------------|

"You deserve each tear that falls.."
13.
|-----|
|-----|
|-33x-|
|-----|

"Scratch out your eyes.."
14.
|------------------------------------|
|------------------------------------|
|-55555555-55555555-55555555-555-5-5-|
|------------------------------------|

Chorus
"The blood will drown you in red.."
15.
|-----------------------------------------------|
|-----------------------------------------------|
|-7777777777-77777777-222-33333333-333333333333-|
|-----------------------------------------------|

"A lovely evening draped in regret.."
16.
|-------------------------------------------------|
|-------------------------------------------------|
|-5555555-55555555-55555555-55555555-22x-22~--22x-|
|-------------------------------------------------|

"The taste of your death replaced.." 
17.
|-----------------------------------------------|
|-----------------------------------------------|
|-7777777777-77777777-222-33333333-333333333333-|
|-----------------------------------------------|

"A lovely evening draped in regret.."
18.
|--------------------------------------------|
|--------------------------------------------|
|-5555555-55555555-55555555-55555555-22x-22~-|
|--------------------------------------------|

Outro
19.
|--------------|
|--------------|
|-5-2-4-0-4----|
|-----------2~-|

20.
|-------------|
|-------------|
|------5-2-4x-|
|-2~----------|

21.
|-----------------------------------------------------------------------|
|-----------------------------------------------------------------------|
|------------------4444444-44444444-55555555-55555555-22222222-22222222-|
|-2222222-22222222------------------------------------------------------|

22.
|------------------------------------|
|------------------------------------|
|----------44x-44x--55x-55x--22x-22x-|
|-22x-22x----------------------------|

23.
|---------------------------------|
|---------------------------------|
|---------------------------------|
|-22x-22x-22x-22x-22x-22x-22x-22x-|

Verse
24.
|-------------------|
|--------02---------|
|-0132-03-----------|-x4
|-----------0-0-0-0-|

25.
|-----------|
|--------2x-|
|-0132-03---|
|-----------|

Lyrics

You've taken the last of me
The god's of your innocence shall not protect you from the hate of my wrath
You've taken the last of me... blame the end on yourself
You deserve each tear that falls
Scratch out your eyes

The blood will drown in red and I will leave you for dead
A lovely evening draped in regret
The shadow of justice now engulfs you
As cold hands reap the pain they've sewn
You've taken the last of me
Blame the end on yourself
You deserve each tear that falls
Scratch out your eyes

The blood will drown in red and I will leave you for dead
A lovely evening draped in regret
Forever gone
The taste of your death replaced the smell of your breath
A lovely evening draped in regret

Suffocate your will to live with my pain
You were so easily seduced by greed
You could never feel my calloused hands closing around your throat
Taste your loss
Wake into the nightmare that has become our love
May your screams never cease
You've taken the last of me 

+++++++++++++++++++++++++

6. Congratulations, I Hate You 

Tuning: Drop D

"No one ever said that life was fair.." x2
1.
|------------------------------------------------------|
|------------------------------------------------------|
|-33333333333333333333333333---------------------------|
|---------------------------00000000000000000000000000-|

"Taste you vanity.." x2
2.
|------------------------------------|
|------------------------------------|
|-33-33-3-33-33-3--------------------|
|-----------------00-00-0-00-00-0----|

"You took them all.."
3.
|-----------------|
|-----------------|
|-----------------|
|-0~--0~--0~--0~--|

"Fantasize for tragedy.."
4.
|----------------------------|
|----------------------------|
|-2~--3~-33333333--33x--55x--|
|----------------------------|

Chorus
"Beg me ..."
5.
|-------------------------------------------------------|
|-------------------------------------------------------|
|-33333333333333------------22222222222-33333333-33x-55x|
|---------------000000000000----------------------------|

"Suffer alone.."
6.
|---| 
|---|
|---|
|-0~|

"I lust to see you.." x2
7.
|---------------------------------|
|---------------------------------|
|-3333x---2222x---7777x---5555x---|
|---------------------------------|

8.
|-----------------|
|-----------------|
|-33x-55x---------|
|-----------------|

Chorus
"Beg me ..."
9.
|-------------------------------------------------------|
|-------------------------------------------------------|
|-33333333333333------------22222222222-33333333-33x-55x|
|---------------000000000000----------------------------|

"Send stares.."
10.
|-----------------------------------------------------------------|
|-----------------------------------------------------------------|
|-3-33-3-3x-33-3--7x-77-7-7x-77-7-2x-22-2-2x-22-2-3x-33-3-33x-55x-|
|-----------------------------------------------------------------|

Bass solo...* ~x: Let ring then mute.. About x6
11.
|------------------------------------------------------|
|----------5~x------------------------5~x--------------|
|----33-22--------33-22-0~x-----33-22-------3-2x-2-0x--|
|-00-----------00------------00-----------0------------|

"Fantasize for tragedy...."
12.
|----------------------------|
|----------------------------|
|-2~--3~-33333333--33x--55x--|
|----------------------------|

Lyrics:

No one ever said that life was fair and Im not saying that it should be
so knowing that you are what you want to be and Im not comes as no surprise
but dont expect me to be happy for you
and dont smile at me and tell me things will work out for me too
I dont want your pity...I hate your pity

Taste your vanity and its sweet bitterness
as you hide behind your veil of my stolen hopes and lost dreams
...you took them all...
I watched you steal my thoughts and had to see you smile

As you build your dreams on my shattered hopes
Ill look back on a day once loved and fantasize for tragedy

Beg me to make this easier and listen to my hopeless cries

Suffer alone in emptiness
I lust to see you swallowed by the mess that you left in your wake
disgust lies deep within your empty gaze...

Beg me to make this easier and listen as my hopeless cries
send stares into your meaningless eyes

My envy cant describe how I loathe you for having all the stars
leaving my eyes to marvel the sky knowing it should be mine
yet its you I see wasting the dream that only I deserve
Ill tear off your face to see your smile.

++++++++++++++++++++++++++++

7. Early Morning

No Bass

Last night I forgot how the sound your voice whispered sweet
Goodbyes, your eyes left to die
I'm alone too
I don't stand why

Why not one more night
one last kiss good bye
my sweet love tonight
I hope the stars still spell out your name where you are...

Kiss my closings eyes
Help me sleep without you I'm so lost
Tonight I cry
Tell me why
I can't live without your warm embrace

Why not one more night
one last kiss good bye
my sweet love tonight
I hope the stars still spell out your name where you are...

I close my eyes and you are everything I see
Goodbye

Goodbye to you my love
I will forget you
I'll see you soon
Goodbye my love
Goodbye to you my love
I will forget you
Let me live

+++++++++++++++++++++++++++++++++

Please rate
I hope you enjoyed

+++++++++++++++++++++++++++++++++
| RaiLeff                       |
| Underground__Dora@Hotmail.Com |
+++++++++++++++++++++++++++++++++

            
            
Suggest correction
Creating personal tab
Creating personal tab
You can edit any tab online and save it as your Personal.

You can edit, replace or remove any tab part or add personal notes – all changes will be seen only by you.

Personal tabs can be accessed anytime from any device, even offline.
Learn more »
Give kudos to tab author, rate the tab!
1 2 3 4 5
comments
print report bad tab
2 comments total.
+1 reply
TheMidasTouch 82 Jun 04, 2008 06:03 PM

Pretty Much Dead on

0 reply
haydenb23 14 Jun 23, 2016 05:31 PM

Seems like everything on the A string on the third track needs to be a step lower... Like, all the 4s should be 2s and the 2s should be 0s etc.

guest
You may want to rate the tab now too:
select rating
Wanna post a correction for this tab? Suggest correction