Oops, an error
Loading. Please wait.

What Goes Around Comes Around bass

version 3
version 3

Whole song

Interactive

by Alesana
343 views 1 this week
1 commentread comment
1 2 3 4 5
2 more votes to show rating
add to favorites
×
Save as Personal and add changes to this tab that will be seen only by you. Learn more ›
×
You can save this tab as Personal to edit and correct it or add notes. All changes will be seen only by you. Learn more »
launch autoscroll
font size
0
reset
guitar tuner
edit
Autoscroll
slow
fast
+/-
esc
set tempo
stop
This is a cover by Alesana of the Justin Timberlake song "What Goes Around". 
Album: Punk Goes Pop Volume 2.
Tuning: Drop 'D' (G,D,A,D)
~ = ring
h = hammer on
t = tap... quickly


(0:00 - 0:06) 
+++This is the guitar part if you want to play it on bass+++
G |-14-12-14-t9h10--------|
D |----------------12--12-| (it's quick!)
A |-----------------------|
D |-----------------------| (repeat x3)

|----14-12-14-14-12-14-14-12-|
|-12-------------------------|
|----------------------------|
|----------------------------|

+now for the bass parts!+
(0:06 - 0:41)
...Hey girl, is he everything you wanted in a man?...
|------------------------------------|
|------------------------------------|
|-0000000-33333333----------55555555-|
|------------------55555555----------| (Repeat x5)

(0:41 - 1:16)
...don't want to talk about it...
|----------------------------|
|----------------------------|
|-0----3--------55555555-----|
|-----------5----------------| (Repeat x5)

(1:16 - 1:30)
...what goes around...
|-------------------------------------|                   |--------------|
|-------------------------------------|(repeat)           |--------------|
|-------------------------------------|                   |--------------|
|-0--000-000--000-000-000-00-8888-585-|(2nd time add this)|-10-10-10-878-| 

(1:30 - 1:53)
...now girl, I remember everything that you blamed...
|------------------------------------|
|------------------------------------|
|-0000000-33333333----------55555555-|
|------------------55555555----------| (Repeat x4)

(1:53 - 2:28)
...don't wanna talk about it...
|----------------------------|
|----------------------------|
|-0----3--------55555555-----|
|-----------5----------------| (Repeat x5)

(2:28 - 2:41)
...what goes around...
|-------------------------------------|
|-------------------------------------|
|-------------------------------------|
|-0--000-000--000-000-000-00-8888-585-| (Repeat)

(2:43 - 3:30)
...and now you want somebody to kill the lonely nights...
|-----------------|
|-----------------|
|-3~----5~--------|
|------------2-2~-| (Repeat x6)

(3:30 - 3:42)
...You spend your nights alone, and he never comes home...
|----------------------------|
|----------------------------|
|----------------------------|
|-0x--0x0x0x--0x0x0x--0x0x0~-| (Repeat)

(3:42 - 3:53)
...When you cheated girl, my heart bleeded girl...
|---------------------------------------------------|
|---------------------------------------------------|
|---------------------------------------------------|
|-0~--0-00~--0-00~--0-00~---0~--0-00~--0-00~--0-00x-|

(3:53 - end)
...I thought I told you,baby...
|--------------------------------|
|--------------------------------|
|-33333333-55555555--757~------3-|
|---------------------------5----|(Repeat x3, let the 3 ring out last time)


annnnd that's all. if you don't know this song, please check it out, it's worth 
it. any questions, email me at;
shepherds.pie@hotmail.com
thanks c;

            
            
Suggest correction
Creating personal tab
Creating personal tab
You can edit any tab online and save it as your Personal.

You can edit, replace or remove any tab part or add personal notes – all changes will be seen only by you.

Personal tabs can be accessed anytime from any device, even offline.
Learn more »
Give kudos to tab author, rate the tab!
1 2 3 4 5
comments
print report bad tab
1 comment total.
0 reply
kenziethomas13 254 Aug 13, 2013 07:30 AM

Nice tab. And awesome song. XD

guest
You may want to rate the tab now too:
select rating
Wanna post a correction for this tab? Suggest correction