Oops, an error
Loading. Please wait.

Me So Mbriacato chords

version 2
version 2

Whole song

1,540 views 27 this week
no commentswrite comment
1 2 3 4 5
2 more votes to show rating
add to favorites
×
Save as Personal and add changes to this tab that will be seen only by you. Learn more ›
×
You can save this tab as Personal to edit and correct it or add notes. All changes will be seen only by you. Learn more »
launch autoscroll
font size
0
reset
transpose
0
reset
simplify chords
display chords
guitar tuner
edit
Autoscroll
slow
fast
+/-
esc
set tempo
stop
Author
Difficulty
Strumming
There is no strumming pattern for this song yet. and get +5 IQ
-------------------------------------------------------------------------------
                             Me So' Mbriacato - Alessandro Mannarino
-------------------------------------------------------------------------------

For the verse (Am E) play:

e|-----0-----0-----0-----0-----|
B|-----1-----1-----0-----0-----|
G|-----2-----2-----1-----1-----|
D|---------2-----------2-------|
A|--0------------2-------------|
E|-----------------------------|

For the chorus strumming you can play DDUUDUD or whatever you think sounds nice.

(*)   Just strum it down once.
(**)  Strum down once and hit the chords with your hand three times.
(***) One slow strum.


Intro:

      Am          F     E     Am
e|-----0-----0-----1-----0-----5-----5-----5----5----------------------------|
B|-----1-----1-----1-----0-----5-----5-----5----5----------------------------|
G|-----2-----2-----2-----1-----5-----5-----5----5----------------------------|
D|---------2-----3-----2-----------7-----6-----------------------------------|
A|--0-----------------------------------------7------------------------------|
E|---------------------------5-----------------------------------------------|

      Am          F     E     Am          E
e|-----0-----0-----1-----0-----5-----5----0----------------------------------|
B|-----1-----1-----1-----0-----5-----5----0----------------------------------|
G|-----2-----2-----2-----1-----5-----5----1----------------------------------|
D|---------2-----3-----2-----------7------2----------------------------------|
A|--0-------------------------------------2----------------------------------|
E|---------------------------5------------0----------------------------------|


Verse 1:

                Am            E
Quando io sono solo con te
                     Am            E
sogno immerso in una tazza di thè
                 Am            E
ma che caldo qua dentro
                 Am            E
ma che bello il momento.

Am   F  E  /  Am    (First half of the intro tab)
Mhhh    Mhh   Mhh

       Am            E
Quando sono con te
               Am            E
non so più chi sono perché
             Am            E
crolla il pavimento
                Am            E
e mi sciolgo qui dentro
        Am            E
Quando penso a te
         Am            E
Mi sento denso perché
                Am            E
io ti tengo qua dentro di me
                 Am(*)         A7(***)
io ti porto qua dentro con me.

Chorus:

(no sound)    Dm           Am
Me so' 'mbriacato de 'na donna
          E                  Am
quanto è bbono l'odore della gonna
          Dm                Am
quanto è bbono l'odore der mare
            E                  Am
ce vado de notte a cerca' le parole.
          Dm                Am
Quanto è bbono l'odore del vento
            E               Am
dentro lo sento, dentro lo sento.
          Dm                 Am
Quanto è bbono l'odore dell'ombra
               E               Am (**)
quando c'è 'r sole che sotto rimbomba.
         E                   Am
Come rimbomba l'odore dell'ombra
         E              Am
come rimbomba, come rimbomba.
        E             Am
E come parte e come ritorna
       E(*)                Am ...(Intro tab again)
Come ritorna l'odore dell'onda.


Verse 2:
               Am            E
Quando io sono solo con te
             Am            E
io cammino meglio perché
                     Am            E
la mia schiena è più dritta
                     Am            E
la mia schiena è più dritta
        Am            E
Quando sono con te
          Am            E
io mangio meglio perché
               Am            E
non mi devo sfamare
              Am(*)            A7(***)
non mi devo saziare con te


Chorus:

(no sound)    Dm           Am
Me so' 'mbriacato de 'na donna
          E                  Am
quanto è bbono l'odore della gonna
          Dm                Am
quanto è bbono l'odore der mare
            E                  Am
ce vado de notte a cerca' le parole.
          Dm                Am
Quanto è bbono l'odore del vento
            E               Am
dentro lo sento, dentro lo sento.
          Dm                 Am
Quanto è bbono l'odore dell'ombra
               E               Am (**)
quando c'è 'r sole che sotto rimbomba.
         E                   Am
Come rimbomba l'odore dell'ombra
         E              Am
come rimbomba, come rimbomba.
        E             Am
E come parte e come ritorna
       E(*)                Am
Come ritorna l'odore dell'onda.


Outro:

E Am  E Am (X4) E(*)  (Still strummed)

Am F E   Am E (Or first half of the intro)(X4)  Am(***)


************************************

| /   slide up
| \   slide down
| h   hammer-on
| p   pull-off
| ~   vibrato
| +   harmonic
| x   Mute note
| b   Bend
| pb  Pre-bend
| br  Bend release
| pbr Pre-bend release
| brb Bend release bend

************************************

            
            
Suggest correction
Creating personal tab
Creating personal tab
You can edit any tab online and save it as your Personal.

You can edit, replace or remove any tab part or add personal notes – all changes will be seen only by you.

Personal tabs can be accessed anytime from any device, even offline.
Learn more »
Give kudos to tab author, rate the tab!
1 2 3 4 5
comments
print report bad tab
guest
You may want to rate the tab now too:
select rating
Wanna post a correction for this tab? Suggest correction