Oops, an error
Loading. Please wait.

Woman Tab

343 views 1 this week
no commentswrite comment
1 2 3 4 5
please rate
add to favorites
launch autoscroll
font size
0
reset
how to read this tab
guitar tuner
Tab Pro tools
  • play this tab
  • loop segment
  • change instrument
  • show fretboard
  • metronome
×
Best way to learn
"Woman"
Autoscroll
slow
fast
+/-
esc
set tempo
stop
Contributor
Difficulty
novice
-------------------------------------------------------------------------------
                             WOMAN - Alessis Ark
-------------------------------------------------------------------------------
Tabbed by: DoctorWho995
E-mail: lexxel12@gmail.com

Tuning:Standard

Fingerstyle

1.The ring around the moon last night
2.was caused by the refraction of moonlight
3.from the crystals of silver crunchy ice
4.I thought I would call to say I think youre nice
e|---------11----------7-----------4----------|  
B|--------------------------------------------|
G|--------------------------------------------|  x 4
D|--------------------------------------------|
A|---------11----------7-----------4----------|
E|--------------------------------------------|

(bass notes accompany each note)
e|-----11----------11----------11-------------|  
B|-----------0-----------0--------------------|
G|--------------------------------------------| 
D|--------------------------------------------|
A|-----11----11----11----11----11-------------|
E|--------------------------------------------|

            Say I think youre nice
e|-----7----------7---------4-------4---------|  
B|-----------0---------0--------0-------0-----|
G|--------------------------------------------| 
D|--------------------------------------------|
A|-----7----7----7----7-----4---4---4---4-----|
E|--------------------------------------------|


e|---11--------11--------11--------11--------7-------7--------|  
B|--------0---------0---------0---------0--------0-------0----|
G|------------------------------------------------------------| 
D|------------------------------------------------------------|
A|---11---11---11---11---11---11---11---11---7---7---7---7----|
E|------------------------------------------------------------|

                                                   
e|--4--------4-------4--------4-------4--------4--------------|  
B|-------0-------0-------0-------0--------0--------0----------|
G|------------------------------------------------------------|
D|------------------------------------------------------------|
A|--4---4---4---4---------------------------------------------|
E|--------------------0---0---0---0---0---0---0---0-----------|

1.Some things are better sung than said
2.Id like to walk around in your beautiful head
3.To dangle solar systems above your wicker bed
4.All I am is a woman
5.All I am is a woman
e|--4-------4-------2-------2-------4-------4-------4-------4-------|  
B|------0-------0-------0-------0-------0-------0-------0-------0---|
G|------------------------------------------------------------------|  x 5
D|------------------------------------------------------------------|
A|------------------------------------------------------------------|
E|--4---4---4---4---2---2---2---2---0---0---0---0---0---0---0---0---|


e|---4------2-----|  
B|----------------|
G|----------------|  
D|----------------|
A|----------------|
E|---4------2-----|

1.The web across your eyes last night
2.Was spun by the sandmans surprise
3.When I dreamt, I dreamt I kissed you between the eyes
4.When I awoke, I had been blinded by your light
5.Well I had been blinded by your light

e|--11--------11--------11--------11--------7-------7-------4--------4----|  
B|--------0--------0---------0---------0--------0-------0-------0-------0-|
G|------------------------------------------------------------------------| 
D|------------------------------------------------------------------------|
A|--11---11---11---11---11---11---11---11---7---7---7---7---4---4---4---4-|
E|------------------------------------------------------------------------|

1.Some things are better sung than said
2.Id like to walk around in your magical head
3.To dangle photographs above your wicker bed
4.You started out in a woman
5.Became a man in a woman
6.All I am is a woman 
7.All I am is a woman
e|--4-------4-------2-------2-------4-------4-------4-------4------|  
B|-------0------0-------0-------0-------0-------0-------0-------0--|
G|-----------------------------------------------------------------|  x 7
D|-----------------------------------------------------------------|
A|-----------------------------------------------------------------|
E|--4---4---4---4---2---2---2---2---0---0---0---0---0---0---0---0--|

Ending:
e|----4--------2-----------4------|  
B|--------------------------------|
G|--------------------------------|
D|--------------------------------|
A|--------------------------------|
E|----4--------2-----------4------|

When I am looking at the moon, I am blinded by your light, light
e|-----11----------7-----------9----4-------4------|  
B|-------------------------------------------------|
G|-------------------------------------------------| 
D|-------------------------------------------------|
A|-----11----------7-----------9----4--------4-----|
E|-------------------------------------------------|
comments
We did not receive enough feedback on this tab! Please rate:
print report bad tab
1 2 3 4 5
I want to post or [tab]
guest
You may want to rate the tab now too:
select rating
Please do not post tabs as comments. Select "correction" instead!