Oops, an error
Loading. Please wait.

Man The Pumps tab

163 views 21 this week
1 commentread comment
1 2 3 4 5
2 more votes to show rating
add to favorites
×
Save as Personal and add changes to this tab that will be seen only by you. Learn more ›
×
You can save this tab as Personal to edit and correct it or add notes. All changes will be seen only by you. Learn more »
launch autoscroll
font size
0
reset
how to read this tab
guitar tuner
edit
Autoscroll
slow
fast
+/-
esc
set tempo
stop
About this tab version
The solo is not complete, but otherwise it is the whole song. Was this info helpful? Yes No
[0:00-0:10]
(Guitar)
e|----------------------------|
B|----------------------------| 
G|----4-----6--------4-3------| 
D|-1--4--4--6--6--1--4-3-1----| 
A|-1--2--4--4--6--1--2-1-1----| 
D|-1-----4-----6--1------1----| 

(Horns)
e|---------------------------------------------------------------------------------------------|
B|-------------------------11-11-11-9----9--12-12-12-12-11-9-----------------9-----------------|
G|--8-8-8-8-8-10-11-11-11-------------11---------------------11-8-8-8--10-11---11-10-8----8----|
D|-------------------------------------------------------------------------------------11------|
A|---------------------------------------------------------------------------------------------|
D|---------------------------------------------------------------------------------------------|

[0:10-0:30]
(Guitar)
e|-----------------------------------------| (2x)
B|-----------------------------------------|
G|-----------4-4-----------------4-3-------|
D|-1-1--4-4--4-4--1-1--6-6--1-1--4-3--1----|
A|-1-1--4-4--2-2--1-1--6-6--1-1--2-1--1----|
D|-1-1--4-4-------1-1--6-6--1-1-------1----|

[Violin]
e|-------------------------------------------------------------------------| (2x)
B|-------------------------------------------------------------------------|
G|-11-11-10-8------8-8-8---------------------------------------------------|
D|------------11-8-------11-9-8----8-9-9-9-11-9-8-----------6--------------|
A|------------------------------11----------------6-6-6-8-9---9-8-6-8-6----|
D|-------------------------------------------------------------------------|

[0:30-0:50]
(Guitar)
e|----------------------------|
B|----------------------------|
G|-------4-----------4-3------|
D|-1--4--4--1--6--1--4-3-1----|
A|-1--4--2--1--6--1--2-1-1----|
D|-1--4-----1--6--1------1----|

[0:50-1:00]
(Guitar) (or you could play the Violin part from [0:10-0:30], it's just an up octave)
e|---------------------------------------------------------------------|
B|---------------------------------------------------------------------|
G|---------------------------------------------------------------------|
D|-4-4-3-1------1-1-1--------------------------------------------------|
A|---------4-1--------4-2-1----1-2-2-2-4-2-1---------------------------|
D|---------------------------6---------------1-1-1--3-4-6-4-3-1-3-1----|

[1:00-1:20]
(Guitar)
e|---------------------------|
B|---------------------------|
G|-------4-------------------|
D|-1--4--4--1--6--1--6--8----|
A|-1--4--2--1--6--1--6--8----|
D|-1--4-----1--6--1--6--8----|

[1:20-1:42] 
[Chorus]
(Guitar) 
e|----------------------------|(2x)
B|----------------------------| 
G|----4-----6--------4-3------| 
D|-1--4--4--6--6--1--4-3-1----| 
A|-1--2--4--4--6--1--2-1-1----| 
D|-1-----4-----6--1------1----| 

(Horn)      (1x)
e|-----------|------------------------------------------------------------------------------------------| (2x)
B|-----------|----------------------11-1111-11-9----9--12-1212-12-11-9-----------------9----------------|
G|-7-7-7----7|-8-88-8-8-10-11-11-11--------------11--------------------11-8-8-8--10-11---11-10-8-6-8----|
D|-------10--|------------------------------------------------------------------------------------------|
A|-----------|------------------------------------------------------------------------------------------|
D|-----------|------------------------------------------------------------------------------------------|

[1:42-2:02]
(Guitar)
e|-----------------------------------------| (2x)
B|-----------------------------------------|
G|-----------4-4-----------------4-3-------|
D|-1-1--4-4--4-4--1-1--6-6--1-1--4-3--1----|
A|-1-1--4-4--2-2--1-1--6-6--1-1--2-1--1----|
D|-1-1--4-4-------1-1--6-6--1-1-------1----|

[Violin]
e|-------------------------------------------------------------------------| (2x)
B|-------------------------------------------------------------------------|
G|-11-11-10-8------8-8-8---------------------------------------------------|
D|------------11-8-------11-9-8----8-9-9-9-11-9-8-----------6--------------|
A|------------------------------11----------------6-6-6-8-9---9-8-6-8-6----|
D|-------------------------------------------------------------------------|

[2:02-2:18]
(Guitar)
e|--------------------------------------------------------|
B|--------------------------------------------------------|
G|---------333---------------111-----------------3--------|
D|-3-4-4-4------4-4-4--3-3-3-----1-1-1-444-1-0-------1----|
A|---------------------------------------------1-----1----|
D|---------------------------------------------------1----|

(Violin)
e|--------------------------------------------------------|
B|--------------------------------------------------------|
G|---------666--------------444--------333-------7---8----|
D|---8-8-8-----8-8-8--6-6-6------4-4-4-----4-3-0-----8----|
A|---------------------------------------------------6----|
D|--------------------------------------------------------|

[2:18-2:38]
(Guitar)
e|----------------------------|
B|----------------------------|
G|-------4-----------4-3------|
D|-1--4--4--1--6--1--4-3-1----|
A|-1--4--2--1--6--1--2-1-1----|
D|-1--4-----1--6--1------1----|

[2:38-2:49]
(Guitar) (or you could play the Violin part from [0:10-0:30], it's just an up octave)
e|---------------------------------------------------------------------|
B|---------------------------------------------------------------------|
G|---------------------------------------------------------------------|
D|-4-4-3-1------1-1-1--------------------------------------------------|
A|---------4-1--------4-2-1----1-2-2-2-4-2-1---------------------------|
D|---------------------------6---------------1-1-1--3-4-6-4-3-1-3-1----|

[2:49-3:08]
(Guitar)
e|---------------------------|
B|---------------------------|
G|-------4-------------------|
D|-1--4--4--1--6--1--6--8----|
A|-1--4--2--1--6--1--6--8----|
D|-1--4-----1--6--1--6--8----|

[3:08-3:30] 
[Chorus]
(Guitar) 
e|----------------------------|(2x)
B|----------------------------| 
G|----4-----6--------4-3------| 
D|-1--4--4--6--6--1--4-3-1----| 
A|-1--2--4--4--6--1--2-1-1----| 
D|-1-----4-----6--1------1----| 

(Horn)        (1x)                                                                              (2x)End of 2nd
e|-----------|--------------------------------------------------------------------------------------|----6-8-|
B|-----------|----------------------11-1111-11-9----9--12-1212-12-11-9-----------------9------------|--6-----|
G|-7-7-7----7|-8-88-8-8-10-11-11-11--------------11--------------------11-8-8-8--10-11---11-10-8-6-8|8-------|
D|-------10--|--------------------------------------------------------------------------------------|--------|
A|-----------|--------------------------------------------------------------------------------------|--------|
D|-----------|--------------------------------------------------------------------------------------|--------|

[3:30-3:50]
(Guitar)          (4x)                   (4x)
e|---------------|---------------------|
B|---------------|---------------------|
G|--8--8--8--666-|--11--11--11--999----|
D|--8--8--8--666-|--11--11--11--999----|
A|--6--6--6--444-|--9---9---9---777----|
D|---------------|---------------------|

(Horn)            (4x)                  (4x)
e|----------------|-------------------|
B|----------------|-------------------|
G|--8--8--8--666--|--11--11--11--999--|
D|----------------|-------------------|
A|----------------|-------------------|
D|----------------|-------------------|

[3:50] 
[Solo] 
(Incomplete)
e|------------9--12-10-9-----------------------------------------|
B|-------9-10------------12-10-9------------11-9-----------------|
G|--9-11-------------------------9--8---11-------11-8------------|
D|------------------------------------9---------------11----8----|
A|-------------------------------------------------------11------|
D|---------------------------------------------------------------|

[4:32-4:58] 
[Chorus]
(Guitar)                    (2x)
e|--------------------------|------------------|
B|--------------------------|------------------| 
G|----4-----6--------4-3----|-4--3-------------|
D|-1--4--4--6--6--1--4-3-1--|-4--3--1-1-3-1----|
A|-1--2--4--4--6--1--2-1-1--|-2--1--1-1-3-1----|
D|-1-----4-----6--1------1--|-------1-1-3-1----|

(Horn)       (1x)                                                                                      (2x)   
e|-----------|---------------------------------------------------------------------------------------|
B|-----------|----------------------11-1111-11-9----9--12-1212-12-11-9-----------------9-------------|
G|-7-7-7----7|-8-88-8-8-10-11-11-11--------------11--------------------11-8-8-8--10-11---11-10-8-6-8-|
D|-------10--|---------------------------------------------------------------------------------------|
A|-----------|---------------------------------------------------------------------------------------|
D|-----------|---------------------------------------------------------------------------------------|

End of Horn
e|------------------------------|
B|--------9---------------------|
G|--10-11---11-10-8-6-88-6-8----|
D|------------------------------|
A|------------------------------|
D|------------------------------|

[4:58-end]
(Violin)
e|-------------------------------------------------------------------------| (2x)
B|-------------------------------------------------------------------------|
G|-11-11-10-8------8-8-8---------------------------------------------------|
D|------------11-8-------11-9-8----8-9-9-9-11-9-8-----------6--------------|
A|------------------------------11----------------6-6-6-8-9---9-8-6-8-6----|
D|-------------------------------------------------------------------------|

(Guitar)
e|------------------------------------------------------------------------------|
B|------------------------------------------------------------------------------|
G|---8-8-------11-11-------4-4---------------------------------4---3------------|
D|--8---6----11-----11----4---4-----1-1------6-6------1-1-----4---3----1-1------|
A|-6-----6--9---------9--2-----2---1---1----6---6----1---1---2---1----1---1-----|
D|--------------------------------1-----1--6-----6--1-----1----------1-----1----|

e|-----------------------------------------------------------------------|
B|-----------------------------------------------------------------------|
G|---8-8-------11-11-------4-4-------------------------------------------|
D|--8---6----11-----11----4---4-----1-1------6-6------1-1-----4--3--1----|
A|-6-----6--9---------9--2-----2---1---1----6---6----1---1----4--3--1----|
D|--------------------------------1-----1--6-----6--1-----1---4--3--1----|

            
            
Suggest correction
Creating personal tab
Creating personal tab
You can edit any tab online and save it as your Personal.

You can edit, replace or remove any tab part or add personal notes – all changes will be seen only by you.

Personal tabs can be accessed anytime from any device, even offline.
Learn more »
Give kudos to tab author, rate the tab!
1 2 3 4 5
comments
print report bad tab
1 comment total.
0 reply
akolibob 44 Jul 01, 2017 02:15 PM

Great work my friend.I was searching the last part of guitar at the end and couldn't find it myself.Just try improve the solo that you made because even if its incomplete i think it is something wrong so check it again.

guest
You may want to rate the tab now too:
select rating
Wanna post a correction for this tab? Suggest correction