Oops, an error
Loading. Please wait.

Nancy The Tavern Wench tab

version 2
version 2

Whole song

Interactive

10,172 views 9 this week
3 commentsread comments
1 2 3 4 5
x 4
add to favorites
×
Save as Personal and add changes to this tab that will be seen only by you. Learn more ›
×
You can save this tab as Personal to edit and correct it or add notes. All changes will be seen only by you. Learn more »
launch autoscroll
font size
0
reset
how to read this tab
guitar tuner
backing track
0:00
0:00
edit
Autoscroll
slow
fast
+/-
esc
set tempo
stop
Author
                         Nancy the Tavern Wench                              
Conor - I didnt tab this, some
other musical genius did in guitar pro.
I just put it into text, and made it
short but still complete.

Note: At the bottom is the chorus as
actually played on guitar.

Note: Tuning down your high E string
and tuning it back up may break the string
(usually on cheaper guitars). Enjoy :)

                                                                        Alestorm
Lead Guitar - Tuned down 2 steps


INTRO/CHORUS (keyboard on guitar)
              E  E  E  Q    E     Q    E  S Q    S    E.  S E  E  E  E   
C ||-------|-----0--0--0----3--|--7----7--5-3----3-|--5---5-5--5--3--5--|
G ||-------|--0----------------|-------------------|--------------------|
D#||-------|-------------------|-------------------|--------------------|
A#||-------|-------------------|-------------------|--------------------|
F ||-------|-------------------|-------------------|--------------------|
C ||-------|-------------------|-------------------|--------------------|


  E  E.  S S Q    S    E  E  E  Q    E     E.  S E  Q    E   
--7--8---7-5-3------|-----0--0--0----3--|--7---5-3--3----3--|
------------------0-|--0----------------|-------------------|
--------------------|-------------------|-------------------|
--------------------|-------------------|-------------------|
--------------------|-------------------|-------------------|
--------------------|-------------------|-------------------|


  Q    E  T T S E  E     Q.     Q.        E  E  E  Q    E     Q    E  S Q    S  
--0----3--2-3-2-0-----|--0------2------|-----0--0--0----3--|--7----7--5-3----3-|
-------------------3--|----------------|--0----------------|-------------------|
----------------------|----------------|-------------------|-------------------|
----------------------|----------------|-------------------|-------------------|
----------------------|----------------|-------------------|-------------------|
----------------------|----------------|-------------------|-------------------|


  E.  S E  E  E  E     E  E.  S S Q    S    E  E  E  Q    E   
--5---5-5--5--3--5--|--7--8---7-5-3------|-----0--0--0----3--|
--------------------|------------------0-|--0----------------|
--------------------|--------------------|-------------------|
--------------------|--------------------|-------------------|
--------------------|--------------------|-------------------|
--------------------|--------------------|-------------------|


  E.  S E  Q    E     Q    E  T T S E  E     E  S S S S    E  S S S S Q    E   
--7---5-3--3----3--|--0----3--2-3-2-0-----|-----0-2-3-5-|--7--3-2-3-5-7----7--|
-------------------|-------------------3--|-------------|---------------------|
-------------------|----------------------|-------------|---------------------|
-------------------|----------------------|-------------|---------------------|
-------------------|----------------------|-------------|---------------------|
-------------------|----------------------|-------------|---------------------|


   E   T  T  S S S Q    E     E.  S E  E.  S E     T T S E  E  Q.      
--12--10-12-10-7-5-7----7--|--8---7-5--7---5-3--|--2-3-2-0-----0------|
---------------------------|--------------------|-----------3---------|
---------------------------|--------------------|---------------------|
---------------------------|--------------------|---------------------|
---------------------------|--------------------|---------------------|
---------------------------|--------------------|---------------------|


  E  S S S S Q    E      E   T  T  S S S Q    E     E.  S E  E.  S E   
--7--3-2-3-5-7----7--|--12--10-12-10-7-5-7----7--|--8---7-5--7---5-3--|
---------------------|---------------------------|--------------------|
---------------------|---------------------------|--------------------|
---------------------|---------------------------|--------------------|
---------------------|---------------------------|--------------------|
---------------------|---------------------------|--------------------|


  T T S E  E  Q.        H.              Q.     Q.                     
--2-3-2-0-----0------|--0------------|--L--------------||
-----------3---------|---------------|---------3~------||
---------------------|---------------|-----------------||
---------------------|---------------|-----------------||
---------------------|---------------|-----------------||
---------------------|---------------|-----------------||

VERSE
  H.              H.              H.              H.              H.            
---------------|---------------|---------------|---------------|---------------|---------------||
---------------|---------------|---------------|---------------|---------------|---------------|| 
---------------|---------------|---------------|---------------|---------------|---------------||X2
---------------|---------------|---------------|---------------|---------------|---------------||
--2------------|--5------------|--3------------|--2------------|--2------------|--5------------||
--0------------|--5------------|--3------------|--2------------|--0------------|--5------------||


  H.              H.              H.              H.              H.            
---------------|---------------|---------------||PLAY X2
---------------|---------------|---------------||WITH THE FIRST
---------------|---------------|---------------||TIME ENDING WITH
---------------|---------------|---------------||A AND THEN THE
--2------------|--5------------|--3------------||2ND ENDING WITH B
--0------------|--5------------|--3------------||


  Q.     E  E  E      H.              H.              H.            
-------------------||             ------------------||
-------------------||             ------------------||
-------------------|| ENDING      ------------------|| ENDING
-------------------||    A        ------------------||    B
--2------2--2------|| (PALM       --2------2--2--2--|| (PALM
--2------2--2--3~--||  MUTED)     --2------2--2--2--||  MUTED)
  PM---------------                 PM------------
    

PLAY CHORUS

PLAY VERSE

PLAY CHORUS
                                                                
SOLO
   H        S S S S    Q.      E  E  T  T  T  T       S  S E  S S   Q.
--0----------------|----------------------------|--------------------------|
-------------------|----------------------------|--------------------------|
-------------------|----------------------------|--------------------------|
-------------------|----------5-----5--5--5--5--|--<>7~---5--7-5-<>7~------|
-------------------|--7~---------7--------------|--------------------------|
-----------0-0-0-0-|----------------------------|--------------------------|
                                     PM--------|

   S  E  S S S   E   E   S S    E  E  S S E  E  S S    Q.      S   S  E    S  S  
----------------------------|----------------------|---------------------------|
----------------------------|----------------------|---------------------------|
--------7---7-<>9~--7~------|----------------------|---------------------------|
--7s-9----9-------------9-7-|--9--7--5-7-5---------|----------------12~--------|
----------------------------|---------------7--7---|--7~-----7s-14------14-12--|
----------------------------|--------------------0-|---------------------------|
                                              

   S.T  E   S  S  Q.          E.    S  S  S  E    E   S  S  
--------------------------|--------------------------------|
--------------------------|--15b---12-15-12------12--------|
--14---12--14-12-14~------|-----------------14b------14-12-|
--------------------------|--------------------------------|
--------------------------|--------------------------------|
--------------------------|--------------------------------|


   W                                                        
   S S  E   S  S  Q.         E.     S  S  S  E    E   S  S  
-------------------------|------------12-------------------|
-------------------------|---------12----12-15~--12--------|
--14---12----------------|--14b~---------------------14-12-|
-----------14-12-14------|---------------------------------|
-------------------------|---------------------------------|
-------------------------|---------------------------------|


   S. T  E   S  S  Q.         E.     S  S  S  E     E   S  S  
--------------------------|------------12----------12--------|
--------------------------|---------12----12-15b~------15-12-|
--14~---12----------------|--14b~----------------------------|
------------14-12-14------|----------------------------------|
--------------------------|----------------------------------|
--------------------------|----------------------------------|


   S  S  E    S  S  E     E   S  S      Q.       Q.         
--15b---15b--15-12-------12---------|----------------------|
-------------------15b~------15-12~-|--15b------15brb------|
------------------------------------|----------------------|
------------------------------------|----------------------|
------------------------------------|----------------------|
------------------------------------|----------------------|


   E    E   S  S  Q     E       E.   S  E   E.   S  E   
-----------------------12s--|--20---19-17--19---17-15--|
-------12-------------------|--------------------------|
--14b------14-12-14---------|--------------------------|
----------------------------|--------------------------|
----------------------------|--------------------------|
----------------------------|--------------------------|


   T  T  S  E   E   Q.                                                      
--14-15-14-12------12------||
---------------15----------||
---------------------------||
---------------------------||
---------------------------||
---------------------------||

PLAY CHORUS

ENDING

  E.  S E  E.  S E     T T S E  E  Q.              
--8---7-5--7---5-3--|--2-3-2-0-----0------||||||
--------------------|-----------3---------||||||
--------------------|---------------------||||||
--------------------|---------------------||||||
--------------------|---------------------||||||
--------------------|---------------------||||||

-------------------------------END OF SONG-----------------------------------


CHORUS (ACTUAL GUITAR) - Just replace the chorus with this if desired.

|-------|---------------|---------------|---------------|----------------|
|-------|---------------|---------------|---------------|----------------|
|-------|---------------|---------------|---------------|----------------|
|-------|---------------|---------------|---------------|----------------|
|-------|--2------------|--5------------|--5------------|--7------5------|
|-------|--0------------|--3------------|--5------------|--5------3------|


  H.              H.              Q.     Q.        Q.     Q.      
---------------|---------------|----------------|----------------|
---------------|---------------|----------------|----------------|
---------------|---------------|----------------|----------------|
---------------|---------------|----------------|----------------|
--2------------|--5------------|--3------5------|--2------9------|
--0------------|--3------------|--3------5------|--0------7------|


  H.              H.              H.              Q.     Q.      
---------------|---------------|---------------|----------------|
---------------|---------------|---------------|----------------|
---------------|---------------|---------------|----------------|
---------------|---------------|---------------|----------------|
--2------------|--5------------|--5------------|--7------5------|
--0------------|--3------------|--5------------|--5------3------|


  H.              H.              Q.     Q.        Q.        H.            
---------------|---------------|----------------|---------|---------------|
---------------|---------------|----------------|---------|---------------|
---------------|---------------|----------------|---------|---------------|
---------------|---------------|----------------|---------|---------------|
--2------------|--5------------|--3------5------|--2------|--5------------|
--0------------|--3------------|--3------5------|--0------|--3------------|


  H.              Q.     Q.        Q.     Q.        H.            
---------------|----------------|----------------|---------------|
---------------|----------------|----------------|---------------|
---------------|----------------|----------------|---------------|
---------------|----------------|--4-------------|---------------|
--2------------|--7------5------|--2------2------|--5------------|
--0------------|--5------3------|---------0------|--3------------|


  H.              Q.     Q.        Q.     Q.        H.            
---------------|----------------|----------------|---------------|
---------------|----------------|----------------|---------------|
---------------|----------------|----------------|---------------|
---------------|----------------|--4-------------|---------------|
--2------------|--7------5------|--2------2------|--2------------|
--0------------|--5------3------|---------0------|--0------------|

SONG ORDER---------------
Chorus (intro)
Verse
Chorus
Verse
Chorus
Solo
Chorus
Ending

Duration Legend
---------------
W - whole
H - half
Q - quarter
E - 8th
S - 16th
T - 32nd
X - 64th
. - note dotted
|-n-|  - n-tuplets


Tab Legend
----------------
> - accentuded note
h - hammer on
p - pull off
b - bend
/ -  slide into from below or out of upwards
\ -  slide into from above or out of downwards
~ - vibrato
< - fade in
^ - brush up
v - brush down
Suggest correction
Creating personal tab
Creating personal tab
You can edit any tab online and save it as your Personal.

You can edit, replace or remove any tab part or add personal notes – all changes will be seen only by you.

Personal tabs can be accessed anytime from any device, even offline.
Learn more »
comments
print report bad tab
3 comments total.
0 reply
slash1010 10 Aug 18, 2009 08:34 AM

well tanslated good job

0 reply
Conor_man11 30 Sep 08, 2009 02:47 PM

thanks man.

0 reply
AcousticMetal99 197 Feb 02, 2013 08:09 AM

Really nice and clear.

guest
You may want to rate the tab now too:
select rating
Wanna post a correction for this tab? Suggest correction