Oops, an error
Loading. Please wait.

Angel Of Darkness Chords

4,441 views 24 this week
1 commentread comment
1 2 3 4 5
x 5
add to favorites
launch autoscroll
font size
0
reset
transpose
0
reset
display chords
guitar tuner
Autoscroll
slow
fast
+/-
esc
set tempo
stop
Help us to improve Ultimate-Guitar.com Take our survey!
×
Author
Difficulty
intermediate
Alex C. feat Yasmin K. - Angel of Darkness
This is the promotional song for the "Tomb Raider: The Angel of Darkness" 
videogame produced by Alex Christensen and sung by Yasmin Knock.
Here are the original chords found by me.

Standard tuning:
B= x24442
F#= 244322
C#= x46664
G#m= x66444
D#m= x68876
You can possibly use a capo at the second fret to make the first two chords easier

Jingle (played during Refrain and Spoken Bridges):

e|2---2---22----2---9---9---6---6---------------------7---7---6---6----|
B|--4---4-----4---4-----------------6---6---66----6--------------------|
G|------------------------------------6---6-----6---6------------------|
D|---------------------------------------------------------------------|
A|---------------------------------------------------------------------|
E|---------------------------------------------------------------------|

e|2---2---22----2---9---9---6---6--------------------------------------4|
B|--4---4-----4---4------------------6---6---66----6---4---4---44---4---|
G|-------------------------------------6---6-----6---6---4---4-----4----|
D|----------------------------------------------------------------------|
A|----------------------------------------------------------------------|
E|----------------------------------------------------------------------|

e|2---2---22----2---9---9---6---6---------------------7---7---6---6----|
B|--4---4-----4---4-----------------6---6---66----6--------------------|
G|------------------------------------6---6-----6---6------------------|
D|---------------------------------------------------------------------|
A|---------------------------------------------------------------------|
E|---------------------------------------------------------------------|

e|2---2---22----2---9---9---6---6---------------------------------------|
B|--4---4-----4---4------------------6---6---66----6---4---4---44---4---|
G|-------------------------------------6---6-----6---6---4---4-----4---4|
D|----------------------------------------------------------------------|
A|----------------------------------------------------------------------|
E|----------------------------------------------------------------------|


REFRAIN:
B        F#
Angel of darkness
C#       G#m
Angel of darkness
     B                F#
The world is in your hand 
    C#              G#m
But I will fight until the end 

B        F#    
Angel of darkness
C#       G#m
Angel of darkness 
       B              F#
Don't follow your command
    C#              G#m
But I will figth and I will stand


SPOKEN BRIDGE 1:
B                   F#
   When darkness falls
C#      G#m
Pain is all
B                      F#
  The Angel of Darkness
C#                   G#m
will leave behind 
and I will fight


VERSE 1:
G#m              
  The love is lost
B                
  beauty and light
D#m                C#
  have vanished from garden of delight 
G#m                  
  The dreams are gone
B
  midnight has come
D#m             C#            G#m 
  the darkness is our new kingdom
C#
yeah


REFRAIN


SPOKEN BRIDGE 2:
B
Hunt goes on
F#
deep in the night
C#
time to pray
G#m
down on your knees
           B
you can't hide from the
F#
eternal light
   C#
until my last
G#m
breath I will fight


VERSE 2:
G#m          
  Now realise 
B                 
  the stars they die
D#m                C#
  darkness has fallen in paradise 
G#m                  
  but we'll be strong 
B                
  and we will fight
D#m              C#             G#m  C#
  against the creatures of the ni - ight

REFRAIN
Suggest correction
comments
print report bad tab
1 comment total.
0 reply
je1988 30 Aug 20, 2013 08:42 PM

Thanks bro

guest
You may want to rate the tab now too:
select rating
Wanna post a correction for this tab? Suggest correction