Oops, an error
Loading. Please wait.

Tu Poeta Tab

26,429 views 33 this week
no commentswrite comment
1 2 3 4 5
excellent!
x 5
add to favorites
launch autoscroll
font size
0
reset
how to read this tab
guitar tuner
Tab Pro tools
  • play this tab
  • loop segment
  • change instrument
  • show fretboard
  • metronome
Autoscroll
slow
fast
+/-
esc
set tempo
stop
Contributor
Intro: G - Cadd2 - G - Cadd2
G                               D
 Cuando desperté allí estabas Tú,
                            Em
Aquella mujer con la que soñé,
                               C
Le vestí la piel sus labios bese,
                               G
Y en su corazón allí me refugie,
                                D
Late el corazón late hoy por vos,
                           Em
Y si canto yo canto para Tí,
                             C
Mi vida entera toda te la doy,
                                G--D
Ya no tengas miedo yo aquí estoy.
(CORO)
       G            D
Tú poeta y Tú verano
        Am        Em               D
El silencio de mi voz diciendo te amo,
         G            D
Mi princesa mi primavera,
       C          G                D--D
Mi ternura y mi amor por vez primera.
ESTROFA II
   G                            D
Me conoces bien siempre te amare,
                                   Em
Aunque estemos lejos yo aquí estaré,
                             C
Seré Tú poema Tú razón de ser,
                                G
Tú serás mi reina mi única mujer,
                                 D
Tú serás mi aliento serás mi edén,
                                 Em
Mi eterno romance confidente fiel,
                             C
Niña consetida amor de mi ser,
                             G--D
Agua de este rió que yo beberé.

otra vez el CORO Y luego ESTE PUENTE
F-C-G-Em-F-C-G-E

Se toca el CORO un tono arriba y Luego esto
           A         Em
Soy un niño enamorado,
       Bm          F#              E
El diseño de Tú sueño en mi plantado,
         A           E
Consentida mariposita,
       Bm          F#                 E
Prisionera de este amor que no se rinde...
     ↓ aquí sigue el Piano y para la guitarra
G-D-F-C-G-D-F-C-G







Solo With Distortion

e----------------------------------------|
b-4s6-8-10-12s15s13------------12--------|
g------------------12--12-14s16--14-12h14|
D--------------------12------------------|
A----------------------------------------|
E----------------------------------------|

e------------------------12-14-14s15-14-15-15s17-16-17-17s19---|
b-4s6-8-10-12s15s13---12---------------------------------------|
g------------------12------------------------------------------|
D--------------------------------------------------------------|
A--------------------------------------------------------------|
E--------------------------------------------------------------|

S= Slide
H= Hammer on
V= Vibrato
comments
print report bad tab
I want to post or [tab]
guest
You may want to rate the tab now too:
select rating
Please do not post tabs as comments. Select "correction" instead!