Oops, an error
Loading. Please wait.

Hummingbird Tab

3,797 views 3 this week
1 commentread comment
1 2 3 4 5
accurate
x 4
add to favorites
launch autoscroll
font size
0
reset
how to read this tab
guitar tuner
Tab Pro tools
  • play this tab
  • loop segment
  • change instrument
  • show fretboard
  • metronome
×
Best way to learn
"Hummingbird"
Autoscroll
slow
fast
+/-
esc
set tempo
stop
Contributor
Alex Clare - Hummingbird

I saw there was only one version of the songs' chords out here in the net, which 
wasn't working at all so I thought I would provide my version, which is (hopefully) accurate (:
I got the tabs/chords by listening to it only.
So there may be mistakes.
If there are, please leave a comment or something similar so I can correct them (:
I tried my best to visualize the strumming pattern via the tabs, if you have any 
doubt how to really play it though, just listen to the song (:

Have fun!

---Capo1---


TAB: Intro/Outro, Chorus & Verse
e|----------------------|
B|----------------------|
G|----------------------| REPEAT.
D|------0-0-------------|
A|-----------0-0--0-0-0-|
E|-1-1------------------|


CHORDS: Intro & Verse
   Fm   Dm   Am
e|------1-1-------------|
B|------3-3--1-1--1-1-1-|
G|------2-2--2-2--2-2-2-| REPEAT.
D|-3-3--0-0--2-2--2-2-2-|
A|-3-3-------0-0--0-0-0-|
E|-1-1------------------|


CHORDS: Chorus Vers.1
   Fm   Dm   Am
e|------1-1-------------|
B|------3-3--1-1--1-1-1-|
G|------2-2--2-2--2-2-2-| REPEAT.
D|-3-3--0-0--2-2--2-2-2-|
A|-3-3-------0-0--0-0-0-|
E|-1-1------------------|


CHORDS: Chorus Vers.2
   Fm   Dm   Am   C
e|------1-1-------------|
B|------3-3--1-1--1-1-1-|
G|------2-2--2-2--0-0-0-| REPEAT.
D|-3-3--0-0--2-2--2-2-2-|
A|-3-3-------0-0--3-3-3-|
E|-1-1------------------|


TAB: Bridge
e|-----------------------------|
B|-20202(2)020202-20202-02-0-2-|
G|-----------------------------| REPEAT.
D|-----------------------------|
A|-----------------------------|
E|-----------------------------|


CHORDS: Bridge
Fm Dm          Am                Fm      
   Buzzing around in around my head, 
   Dm                Am                        Fm
   things you have done, the words you have said, 
   Dm          Am           Dm~
   remain with me after you left
     Am~              
   I try but I can't forget
comments
print report bad tab
1 comment total.
0 reply
midnightgiant wrote on April 4 2014, 06:49 pm

Capo 1st
Chorus:
F Dm Am
Like a hummingbird in flight you are,

Hovering, hovering 'round me,
Bb F A
As I move near, you fly away.

(There's definitely some added notes but I think this way is a lot closer to what I am hearing. But awesome job on what you have and if someone can improve on what I added, please do!)

I want to post or [tab]
guest
You may want to rate the tab now too:
select rating
Please do not post tabs as comments. Select "correction" instead!