Oops, an error
Loading. Please wait.

Too Close Acoustic tab

version 6
version 6

Video

397 views 45 this week
no commentswrite comment
1 2 3 4 5
2 more votes to show rating
add to favorites
×
Save as Personal and add changes to this tab that will be seen only by you. Learn more ›
×
You can save this tab as Personal to edit and correct it or add notes. All changes will be seen only by you. Learn more »
launch autoscroll
font size
0
reset
how to read this tab
guitar tuner
edit
Autoscroll
slow
fast
+/-
esc
set tempo
stop
Author
Difficulty
-------------------------------------------------------------------------------
                             Too Close Acoustic - Alex Clare
-------------------------------------------------------------------------------
Tabbed by: Connor Grace

Tuning: Standard (EADGBe)

Intro: (play twice)

                  Bm                                         D
e|----------------------------2-----------|---------2---3--2-----------------------|
B|-------------------3-----------3--------|---------3---------3--3-----------------|
G|--------------4-------4-----------4-----|------2--2---------------2--------------|
D|-----------4----4--------------------4--|---0------------------------------------|
A|---0---2--------------------------------|----------------------------------------|
E|----------------------------------------|----------------------------------------|
                  Em                             G                 F#
e|----------------------0-----------------|----------------------------------------|
B|----------------0--------0--------------|-----------0---------------2------------|
G|----------0--------0--------0-----------|-----------0---------------3------------|
D|-------2-----2-----------------2--------|-----------0---------------4------------|
A|----------------------------------------|----------------------------------------|
E|---0------------------------------------|---3---3-------2---2---2----------------|

Verse: (6 times: 4 verse, 2 transition into chorus so play it a little harder on the last 2)

                  Bm                                         D
e|----------------------------------------|-----------2-----------2----------------|
B|-----------3-----------2----------------|-----------3-----------3----------------|
G|-----------4-----------4----------------|-----------2-----------2----------------|
D|-----------4-----------4----------------|---0---0-------0---0--------------------|
A|---0---2-------2---2--------------------|----------------------------------------|
E|----------------------------------------|----------------------------------------|

                  Em                             G                 F#
e|----------------------------------------|----------------------------------------|
B|-------0-----------0--------------------|-------0------------------------2-------|
G|-------0-----------0--------------------|-------0------------------------3-------|
D|-------2-----------2--------------------|-------0------------------------4-------|
A|----------------------------------------|----------------------------------------|
E|---0-------0---0-------0----------------|---3--------------------2---2-----------|

Chorus: (D = Downstroke and U = Upstroke) (Play 4 times) (This is optional, I prefer doing the verse pattern
in chorus)

                 Bm                                       
     D   D   U      U   D   U                 D   D   U      U   D   U
e|---2---2---2------2---2---2-------------|---2---2---2------2---2---2-------------|
B|---3---3---3------3---3---3-------------|---3---3---3------3---3---3-------------|
G|---4---4---4------4---4---4-------------|---2---2---2------2---2---2-------------|
D|---4---4---4------4---4---4-------------|---0---0---0------0---0---0-------------|
A|---2---2---2------2---2---2-------------|----------------------------------------|
E|---2---2---2------2---2---2-------------|----------------------------------------|

                Em                                 G             F#
     D   D   U      U   D   U                 D   D   U      D   D   U   
e|---0---0---0------0---0---0-------------|---3---3---3------2---2---2-------------|
B|---0---0---0------0---0---0-------------|---0---0---0------2---2---2-------------|
G|---0---0---0------0---0---0-------------|---0---0---0------3---3---3-------------|
D|---2---2---2------2---2---2-------------|---0---0---0------4---4---4-------------|
A|---2---2---2------2---2---2-------------|---2---2---2------4---4---4-------------|
E|---0---0---0------0---0---0-------------|---3---3---3------2---2---2-------------|

-Verse Again: (6 times through, 2 intro, 4 singing)

-Pause a second while the singer sings a line.

-Immediately Play into Chorus (4 Times)

-Small verse pattern section (2 Times verse pattern)

-Plays Into Chorus Again (4 times)

Now you can play the verse pattern a few times for the ending, or go back and play the intro pattern for the
ending.


*Note: To play the intro pattern you need to play at lower tempo than the recording.
If you are with an entire band and don't want to do that, replace the intro section with the verse pattern
and just use verse and chorus patterns throughout. Also this tab is a little bit of a spin
using my own personal taste. THIS IS NOT how Clare played on the unplugged video;
however I used a few ideas I heard from the video.

            
            
Suggest correction
Creating personal tab
Creating personal tab
You can edit any tab online and save it as your Personal.

You can edit, replace or remove any tab part or add personal notes – all changes will be seen only by you.

Personal tabs can be accessed anytime from any device, even offline.
Learn more »
Give kudos to tab author, rate the tab!
1 2 3 4 5
comments
print report bad tab
guest
You may want to rate the tab now too:
select rating
Wanna post a correction for this tab? Suggest correction