Oops, an error
Loading. Please wait.

Whispering Tab

5,012 views 6 this week
no commentswrite comment
1 2 3 4 5
x 10
add to favorites
launch autoscroll
font size
0
reset
how to read this tab
guitar tuner
Autoscroll
slow
fast
+/-
esc
set tempo
stop
Help us to improve Ultimate-Guitar.com Take our survey!
×
Song:           Whispering
Artist:         Alex Clare
Album:          The Lateness of the Hour
tabbed by James van Rooyen

Verse:
e----------------------------------------------------------------|
B---2--2---2--0--------------------------------------------------|
G---------2--2---------0--0--------------------------------------|
D--2--2--1--1----3--0-2--2---------------------------------------|
A-0--0----------3--3-3--2----------------------------------------|
E--------------1--1----------------------------------------------|


Chorus:
Am, C, D, F


Bridge ("keep on falling down...")
                                                                Final part:
e--5--5--7--8----4--4--5--4-----|-5--5--7--8--4--4--5--5--4--4--5--5---|
B---6--6--6--6----5--5--5--5----|--6--6--6--6--5--5--5--5--5--5--5--5--|
G----7--7--7--2----4--4--4--2---|---7--7--7--2--4--4--4--4--4--4--4--4-|
D-(0)~--------------------------|--------------------------------------|
A-------------------------------|--------------------------------------|
E---------------(0)-------------|--------------------------------------|
The (0) are just notes I'd suggest to play if you're playing acoustic




VERSE
Whispering, whispering, whispering, whispering
As I pass myself down to my knees.
Whispering, whispering, whispering, whispering
As I fall through the willow trees, and I said.

Who will care for the falling?
Who will care for the falling... leaves?

Whispering, whispering, whispering, whispering
As I fall through the willow trees, and I said.

Who will care for the falling?
Who will care for the falling?

CHORUS
Autumn shades, calm my shaking hands,
Tender, cool breeze, keeps me where I am.
Suddenly here, when I want to scream,
Autumn calms me down, keeps me in my dreams.

VERSE
Then I went whispering, whispering, whispering, whispering
As I pass myself down to my knees.
Whispering, whispering, those dew drops are glistening,
As I fall through the willow trees, and I said.

Who will care for the falling?
Who would care for the falling?

CHORUS
Autumn shades, calm my shaking hands,
Tender, cool breeze keeps me where I am.
Suddenly here, when I want to scream,
Autumn calms me down, leaves me in her dreams.

BRIDGE
Keep on falling down, they keep on falling down,
Keep on falling down, keep on falling down.

CHORUS
Autumn shades, calm my shaking hands,
Tender, cool breeze, keeps me where I am.
Suddenly here, when I want to scream,
Autumn calms me down, leaves me in my dreams.

Autumn shades, calm my shaking hands,
Tender, cool breeze, keeps me where I am.
Suddenly hearing, when I want to scream,
Oh, please just cut me down, leave me in my dreams.
Suggest correction
comments
print report bad tab
guest
You may want to rate the tab now too:
select rating
Wanna post a correction for this tab? Suggest correction