Oops, an error
Loading. Please wait.

Be Kind Tab

version 1
version 1

Whole song

  • Contains full write out of song.
94 views 9 this week
no commentswrite comment
1 2 3 4 5
2 more votes to show rating
add to favorites
launch autoscroll
font size
0
reset
how to read this tab
guitar tuner
Autoscroll
slow
fast
+/-
esc
set tempo
stop
Help us to improve Ultimate-Guitar.com Take our survey!
×
Author
About this tab version
Contains full write out of song. Was this info helpful? Yes No
Tabbed by J

Lyrics by Chris on youtube

[Intro] 

play through all of this once 

  Am        G   C              Fmaj7        C       Dm               Fmaj7    Dm           Fmaj7
e|---0-0-0-----------------------0-0-0----------------0-3-1-0---------------0-3-1-0--------------|
B|---1-1-1-----------------------1-1-1------------------------3---------------------3------------|
G|---2-2-2------------0----------2-2-2----------0----------------2-0------------------2-0--------|
D|---2-2-2--------0h2---2---2--3--------------2---2--3-3-0--0--0--0--3-----3-3-0-0-0-0-0---3-----|
A|-0--------2---3---------3-----------------3----------------------------------------------------|
E|----------3------------------------------------------------------------------------------------|

  Dmin          Fmaj7           C
e|-0-3-1-0-3/5--3---0-------------0-0-0-0-|
B|----------------1---1-3-1-0-1---1-1-1-1-|
G|----------------2---2---2---2---0-0-0-0-|
D|3-3-0-0---------3---3---3---3---2-2-2-2-|
A|------------------------------3---------|
E|----------------------------------------|


[Verse]

Watch your mouth Or I'll make you wash it out 
I will teach you to be good, Mary

And all your friends Wanna sail around the bend
But I won't let them take your win, Mary

So you be kind
And I will take you back through time 
I will take away the pain, Mary

for each verse play through whole thing

   Am      C       Fmaj7   C       Dmin    Fmaj7
e|-0-0-0-0-0-0-0-0-0-0-0-0-0-0-0-0--1-0------0-0-0-0-|
B|-1-1-1-1-1-1-1-1-1-1-1-1-1-1-1-1-----3-----1-1-1-1-|
G|-2-2-2-2-0-0-0-0-2-2-2-2-0-0-0-0--------2--2-2-0h2-|
D|-2-2-2-2-2-2-2-2-3-3-3-3-2-2-2-2-0-0-0-0-3-3-3-3-3-|
A|-0-0-0-0-3-3-3-3---------3-3-3-3-------------------|
E|---------------------------------------------------|
                                           A7
  C                Fmaj7 A7            Fmaj7 C          Fmaj7A7  C                     A#7      
e|-----------------------0---0----0----0---0---0---0----0----0---0---0---0-----3-----3-------------|
B|-------------------1---1---1----1----1---1---1---1----1----1---1---1---1---1---1---1------3---1--|
G|-------------------2---0---0----0----2---0---0---0----2----0---0---0---0---0-----0-------1--1-3--|
D|---0-2-------------3---2-------------3---2------------3----2---2-0---2-----2---------3---3---3---|
A|-3---------------------0--2----------------2------------0----3-----------3-------------1---------|
E|-------3-1-0-3-2--1--0----3---2----1---0---3---2----1--------------------------------------------|

End on Fmaj7
   Fmaj7
e|-0-|
B|-1-|
G|-2-|
D|-3-|
A|---|
E|---|

[Chorus]

Cause after all you locked yourself in a dream 
And all the very, very special things 
You see won't mean a thing

And even still you got this far, but you're not there 
Cause all the little things that got you here 
Won't get you anywhere

same deal whole thing

   Am      C       G       Fmaj7   A7      Fmaj7   C           G    Fmaj7
e|-0-0-0-0-0-0-0-0-3-3-3-3-0-0-0-0-0-0-0-0-0-0-0-0---0---0---0---0--0-0-0-0-|
B|-1-1-1-1-1-1-1-1-0-0-0-0-1-1-1-1-1-1-1-1-1-1-1-1---1---1---1---1--1-1-1-1-|
G|-2-2-2-2-2-2-2-2-0-0-0-0-2-2-2-2-0-0-0-0-2-2-2-2---0---0---0---0--2-2-2-2-|
D|-2-2-2-2-0-0-0-0-0-0-0-0-3-3-3-3-2-2-2-2-3-3-3-3---2---2---2------3-3-3-3-|
A|-0-0-0-0-3-3-3-3-2-2-2-2---------0-0-0-0---------3---2---0---2------------|
E|-----------------3-3-3-3-------------------------------------3------------|


************************************

| h   Hammer-on
| /   Slide up

************************************

Let me know if there are any issues as this sounds right to me but some parts are hard to hear
Suggest correction
Give kudos to tab author, rate the tab!
1 2 3 4 5
comments
print report bad tab
guest
You may want to rate the tab now too:
select rating
Wanna post a correction for this tab? Suggest correction