Oops, an error
Loading. Please wait.

Black Hair Tab

397 views 6 this week
no commentswrite comment
1 2 3 4 5
x 3
add to favorites
launch autoscroll
font size
0
reset
how to read this tab
guitar tuner
Autoscroll
slow
fast
+/-
esc
set tempo
stop
Help us to improve Ultimate-Guitar.com Take our survey!
×
Author
Difficulty
intermediate
[Intro]

e|---------------------------------------------------------------------------------|
B|----------------------------------------2-0--------------------------------------|
G|-2/4----0---0-1-1-4--4-2/4----0-0---2-2-2-2--------------------------------------|x8
D|----0-2-2--2--2-2-6--6----0-2-2--2-/4-4-2-2--------------------------------------|
A|--------2-2---2-2-6--6--------2---2/4-4------------------------------------------|
E|---------------------------------------------------------------------------------|
Harmonic bit is sustained for the whole first bar then the chords come in           
e|-----5*-||------15------------------15-------------------------------------------|
B|----5*--||------13--------15--------13--------15---------------------------------|
G|---5*---||-12---12--------14---12---12--------14---18----------------------------|x7
D|--5*----||-----------12---12-------------12---12---19----------------------------|
A|-5*-----||-----------------------------------------18----------------------------|
E|5*------||-----------------------------------------------------------------------|


[Chorus]

e|---------------------------------------------------------------------------------|
B|-12-12----------------------------------------12-12------------------------------|
G|------13-13-12-12----------------------------------13-13-12-12-----11br-9--9-----|
D|-----------------14-14-13-13-14-14----------------------------14-14------11-11-9-|
A|----------------------------------14-14-11-11------------------------------------|
E|---------------------------------------------------------------------------------|
   Black hair it's swimming in my head          Black hair it's bigger than death 
e|-4----------2----------0----------0-----------4----------2--------0-------0------|
B|-5----------4----------2----------0-----------5----------4--------3-------0------|
G|-6----------4----------2----------1-----------6----------4--------2-------1------| 
D|-6----------4----------2----------2-----------6----------4--------0-------2------|
A|-4----------2----------0----------2-----------4----------2----------------2------|
E|----------------------------------0---------------------------------------0------|
  Black hair don’t leave me in the dirt       Black hair i'll show you what i'm worth 
e|-4----------7----------7----------0-----------4----------2--------0-------0------|
B|-5----------9----------7----------0-----------5----------4--------3-------0------|
G|-6----------9----------8----------1-----------6----------4--------2-------1------|
D|-6----------9----------9----------2-----------6----------4--------0-------2------|
A|-4----------7----------9----------2-----------4----------2----------------2------|
E|-----------------------7----------0---------------------------------------0------|


[Bridge]

e|-7\4----7-----11------9------12-------16-------11------9-----5-------------------|
B|----5-0--9------12-----10------14-------17-------12-----10----7------------------|
G|-------8--8/11----11\9---9/13----13/16----16\11----11\9---9\6--6/9---------------|
D|---------------------------------------------------------------------------------|
A|---------------------------------------------------------------------------------|
E|---------------------------------------------------------------------------------|
                                                                                    x1
e|-0------4------7------5------4------7------7------5-------2------0---------------|
B|-0------4------7------5------5------9------7------5-------2------0---------------|
G|-1------4------8------6------6------9------8------6-------2------0---------------|
D|-2------6------9------7------6------9------9------7-------4------2---------------|
A|-2------6------9------7------4------7------9------7-------4------3---------------|
E|-0------4------7------5--------------------7------5-------2------0---------------|


[Verse]

e|---------------------------------------------------------------------------------|
B|---------------------------------------------------------------------------------|
G|--------4-----------6-----------6-----------6------------------------------------|x8
D|-----6-----6-----4-----4-----4-----4-----4-----4---------------------------------|
A|--4-----------------------------------3------------------------------------------|
E|--------------4-----------0------------------------------------------------------|


[Bridge]

e|---------------------------------------------------------------------------------|
B|----------------------------------------2-0--------------------------------------|
G|-2/4----0---0-1-1-4--4-2/4----0-0---2-2-2-2--------------------------------------|
D|----0-2-2--2--2-2-6--6----0-2-2--2-/4-4-2-2--------------------------------------|
A|--------2-2---2-2-6--6--------2---2/4-4------------------------------------------|
E|---------------------------------------------------------------------------------|
                                                                                    x6
e|------15------------------15-----------------------------------------------------|
B|------13--------15--------13--------15-------------------------------------------|
G|-12---12--------14---12---12--------14---18--------------------------------------|
D|-----------12---12-------------12---12---19--------------------------------------|
A|-----------------------------------------18--------------------------------------|
E|---------------------------------------------------------------------------------|


[Chorus]

e|---------------------------------------------------------------------------------|
B|-12-12----------------------------------------12-12------------------------------|
G|------13-13-12-12----------------------------------13-13-12-12-----11br-9--9-----|
D|-----------------14-14-13-13-14-14----------------------------14-14------11-11-9-|
A|----------------------------------14-14-11-11------------------------------------|
E|---------------------------------------------------------------------------------|
   Black hair it's swimming in my head          Black hair it's bigger than death 
e|-4----------2----------0----------0-----------4----------2--------0-------0------|
B|-5----------4----------2----------0-----------5----------4--------3-------0------|
G|-6----------4----------2----------1-----------6----------4--------2-------1------|
D|-6----------4----------2----------2-----------6----------4--------0-------2------|
A|-4----------2----------0----------2-----------4----------2----------------2------|
E|----------------------------------0---------------------------------------0------|
    Black hair is melting in the sun         Black hair just look at what you’ve done
e|-4----------7----------7----------0-----------4----------2--------0-------0------|
B|-5----------9----------7----------0-----------5----------4--------3-------0------|
G|-6----------9----------8----------1-----------6----------4--------2-------1------|
D|-6----------9----------9----------2-----------6----------4--------0-------2------|
A|-4----------7----------9----------2-----------4----------2----------------2------|
E|-----------------------7----------0---------------------------------------0------|


[Outro]

e|-7\4----7-----11------9------12-------16-------11------9-----5-------------------|
B|----5-0--9------12-----10------14-------17-------12-----10----7------------------|
G|-------8--8/11----11\9---9/13----13/16----16\11----11\9---9\6--6/9---------------|
D|---------------------------------------------------------------------------------|
A|---------------------------------------------------------------------------------|
E|---------------------------------------------------------------------------------|
                                                                                    x1
e|-0------4------7------5------4------7------7------5-------2------0---------------|
B|-0------4------7------5------5------9------7------5-------2------0---------------|
G|-1------4------8------6------6------9------8------6-------2------0---------------|
D|-2------6------9------7------6------9------9------7-------4------2---------------|
A|-2------6------9------7------4------7------9------7-------4------3---------------|
E|-0------4------7------5--------------------7------5-------2------0---------------|


************************************

| br  Bend release
| /   Slide up
| \   Slide down
| *   Harmonic

************************************
Suggest correction
Give kudos to tab author, rate the tab!
1 2 3 4 5
comments
print report bad tab
guest
You may want to rate the tab now too:
select rating
Wanna post a correction for this tab? Suggest correction